  0
SECTION
  2
HEADER
  9
$ACADVER
  1
AC1009
  9
$INSBASE
 10
0.0
 20
0.0
 30
0.0
  9
$EXTMIN
 10
1.3333
 20
1.3333
 30
0.0
  9
$EXTMAX
 10
43.9989
 20
27.9993
 30
0.0
  9
$LIMMIN
 10
0.0
 20
0.0
  9
$LIMMAX
 10
45.3322
 20
29.3326
  9
$ORTHOMODE
 70
     1
  9
$REGENMODE
 70
     1
  9
$FILLMODE
 70
     1
  9
$QTEXTMODE
 70
     0
  9
$MIRRTEXT
 70
     1
  9
$DRAGMODE
 70
     2
  9
$LTSCALE
 40
1.3333
  9
$OSMODE
 70
     0
  9
$ATTMODE
 70
     1
  9
$TEXTSIZE
 40
0.333325
  9
$TRACEWID
 40
0.05
  9
$TEXTSTYLE
  7
MASTER
  9
$CLAYER
  8
DIMENSION
  9
$CELTYPE
  6
BYLAYER
  9
$CECOLOR
 62
   256
  9
$DIMSCALE
 40
2.6666
  9
$DIMASZ
 40
0.18
  9
$DIMEXO
 40
0.0625
  9
$DIMDLI
 40
0.38
  9
$DIMRND
 40
0.0
  9
$DIMDLE
 40
0.0
  9
$DIMEXE
 40
0.18
  9
$DIMTP
 40
0.0
  9
$DIMTM
 40
0.0
  9
$DIMTXT
 40
0.125
  9
$DIMCEN
 40
0.09
  9
$DIMTSZ
 40
0.0
  9
$DIMTOL
 70
     0
  9
$DIMLIM
 70
     0
  9
$DIMTIH
 70
     1
  9
$DIMTOH
 70
     1
  9
$DIMSE1
 70
     0
  9
$DIMSE2
 70
     0
  9
$DIMTAD
 70
     0
  9
$DIMZIN
 70
     0
  9
$DIMBLK
  1

  9
$DIMASO
 70
     1
  9
$DIMSHO
 70
     1
  9
$DIMPOST
  1

  9
$DIMAPOST
  1
mm
  9
$DIMALT
 70
     0
  9
$DIMALTD
 70
     2
  9
$DIMALTF
 40
25.4
  9
$DIMLFAC
 40
1.0
  9
$DIMTOFL
 70
     0
  9
$DIMTVP
 40
0.0
  9
$DIMTIX
 70
     0
  9
$DIMSOXD
 70
     0
  9
$DIMSAH
 70
     0
  9
$DIMBLK1
  1

  9
$DIMBLK2
  1

  9
$DIMSTYLE
  2
ENGLISH
  9
$DIMCLRD
 70
     0
  9
$DIMCLRE
 70
     0
  9
$DIMCLRT
 70
     0
  9
$DIMTFAC
 40
1.0
  9
$DIMGAP
 40
0.09
  9
$LUNITS
 70
     2
  9
$LUPREC
 70
     4
  9
$SKETCHINC
 40
0.1
  9
$FILLETRAD
 40
0.5
  9
$AUNITS
 70
     0
  9
$AUPREC
 70
     0
  9
$MENU
  1
.
  9
$ELEVATION
 40
0.0
  9
$PELEVATION
 40
0.0
  9
$THICKNESS
 40
0.0
  9
$LIMCHECK
 70
     0
  9
$BLIPMODE
 70
     0
  9
$CHAMFERA
 40
0.5
  9
$CHAMFERB
 40
0.5
  9
$SKPOLY
 70
     1
  9
$TDCREATE
 40
2452004.412747
  9
$TDUPDATE
 40
2452039.361236
  9
$TDINDWG
 40
0.067827
  9
$TDUSRTIMER
 40
0.067827
  9
$USRTIMER
 70
     1
  9
$ANGBASE
 50
0.0
  9
$ANGDIR
 70
     0
  9
$PDMODE
 70
     0
  9
$PDSIZE
 40
0.0
  9
$PLINEWID
 40
0.0
  9
$COORDS
 70
     1
  9
$SPLFRAME
 70
     0
  9
$SPLINETYPE
 70
     6
  9
$SPLINESEGS
 70
     8
  9
$ATTDIA
 70
     1
  9
$ATTREQ
 70
     1
  9
$HANDLING
 70
     1
  9
$HANDSEED
  5
2690
  9
$SURFTAB1
 70
     6
  9
$SURFTAB2
 70
     6
  9
$SURFTYPE
 70
     6
  9
$SURFU
 70
     6
  9
$SURFV
 70
     6
  9
$UCSNAME
  2

  9
$UCSORG
 10
0.0
 20
0.0
 30
0.0
  9
$UCSXDIR
 10
1.0
 20
0.0
 30
0.0
  9
$UCSYDIR
 10
0.0
 20
1.0
 30
0.0
  9
$PUCSNAME
  2

  9
$PUCSORG
 10
0.0
 20
0.0
 30
0.0
  9
$PUCSXDIR
 10
1.0
 20
0.0
 30
0.0
  9
$PUCSYDIR
 10
0.0
 20
1.0
 30
0.0
  9
$USERI1
 70
     0
  9
$USERI2
 70
     0
  9
$USERI3
 70
     0
  9
$USERI4
 70
     0
  9
$USERI5
 70
     0
  9
$USERR1
 40
0.0
  9
$USERR2
 40
0.0
  9
$USERR3
 40
0.0
  9
$USERR4
 40
0.0
  9
$USERR5
 40
0.0
  9
$WORLDVIEW
 70
     1
  9
$SHADEDGE
 70
     3
  9
$SHADEDIF
 70
    70
  9
$TILEMODE
 70
     1
  9
$MAXACTVP
 70
    48
  9
$PLIMCHECK
 70
     0
  9
$PEXTMIN
 10
1.000000E+020
 20
1.000000E+020
 30
1.000000E+020
  9
$PEXTMAX
 10
-1.000000E+020
 20
-1.000000E+020
 30
-1.000000E+020
  9
$PLIMMIN
 10
0.0
 20
0.0
  9
$PLIMMAX
 10
12.0
 20
9.0
  9
$UNITMODE
 70
     0
  9
$VISRETAIN
 70
     1
  9
$PLINEGEN
 70
     0
  9
$PSLTSCALE
 70
     1
  0
ENDSEC
  0
SECTION
  2
TABLES
  0
TABLE
  2
VPORT
 70
     2
  0
VPORT
  2
*ACTIVE
 70
     0
 10
0.0
 20
0.0
 11
1.0
 21
1.0
 12
25.092706
 22
14.6663
 13
0.0
 23
0.0
 14
0.5
 24
0.5
 15
0.66665
 25
0.66665
 16
0.0
 26
0.0
 36
1.0
 17
0.0
 27
0.0
 37
0.0
 40
29.3326
 41
1.710909
 42
50.0
 43
0.0
 44
0.0
 50
0.0
 51
0.0
 71
     0
 72
   100
 73
     1
 74
     0
 75
     0
 76
     0
 77
     0
 78
     0
  0
ENDTAB
  0
TABLE
  2
LTYPE
 70
     4
  0
LTYPE
  2
CONTINUOUS
 70
     0
  3
Solid line
 72
    65
 73
     0
 40
0.0
  0
LTYPE
  2
HIDDEN
 70
     0
  3
_ _ _ _ _ _ _ _ _ _ _ _ _ _ _ _ _ _ _ _ _ _ _
 72
    65
 73
     2
 40
0.375
 49
0.25
 49
-0.125
  0
LTYPE
  2
CENTER
 70
     0
  3
____ _ ____ _ ____ _ ____ _ ____ _ ____ _ ____
 72
    65
 73
     4
 40
2.0
 49
1.25
 49
-0.25
 49
0.25
 49
-0.25
  0
LTYPE
  2
PHANTOM
 70
     0
  3
_____ _ _ _____ _ _ _____ _ _ _____ _ _ ____
 72
    65
 73
     6
 40
2.5
 49
1.25
 49
-0.25
 49
0.25
 49
-0.25
 49
0.25
 49
-0.25
  0
ENDTAB
  0
TABLE
  2
LAYER
 70
     8
  0
LAYER
  2
0
 70
     0
 62
     7
  6
CONTINUOUS
  0
LAYER
  2
BORDER
 70
     0
 62
     7
  6
CONTINUOUS
  0
LAYER
  2
DIMENSION
 70
     0
 62
     7
  6
CONTINUOUS
  0
LAYER
  2
NOTES
 70
     0
 62
     7
  6
CONTINUOUS
  0
LAYER
  2
CENTERLINE
 70
     0
 62
     7
  6
CENTER
  0
LAYER
  2
HIDDEN
 70
     0
 62
     7
  6
HIDDEN
  0
LAYER
  2
DEFPOINTS
 70
     0
 62
     7
  6
CONTINUOUS
  0
LAYER
  2
CURRENT_SCALE_SETTING
 70
     0
 62
     7
  6
CONTINUOUS
  0
ENDTAB
  0
TABLE
  2
STYLE
 70
     2
  0
STYLE
  2
STANDARD
 70
     0
 40
0.0
 41
1.0
 50
0.0
 71
     0
 42
0.2
  3
txt
  4

  0
STYLE
  2
MASTER
 70
     0
 40
0.0
 41
0.8
 50
0.0
 71
     0
 42
0.333325
  3
romans.shx
  4

  0
ENDTAB
  0
TABLE
  2
VIEW
 70
     1
  0
VIEW
  2
VIEW_LIMITS
 70
     0
 40
29.3326
 10
22.6661
 20
14.6663
 41
45.3322
 11
0.0
 21
0.0
 31
1.0
 12
0.0
 22
0.0
 32
0.0
 42
50.0
 43
0.0
 44
0.0
 50
0.0
 71
     0
  0
ENDTAB
  0
TABLE
  2
UCS
 70
     0
  0
ENDTAB
  0
TABLE
  2
APPID
 70
     4
  0
APPID
  2
ACAD
 70
     0
  0
APPID
  2
MASTER_SIZING
 70
     0
  0
APPID
  2
PAPERSPACE
 70
     0
  0
APPID
  2
MASTER-TITLE
 70
     0
  0
ENDTAB
  0
TABLE
  2
DIMSTYLE
 70
     2
  0
DIMSTYLE
  2
STANDARD
 70
     0
  3

  4

  5

  6

  7

 40
1.0
 41
0.18
 42
0.0625
 43
0.38
 44
0.18
 45
0.0
 46
0.0
 47
0.0
 48
0.0
140
0.18
141
0.09
142
0.0
143
25.4
144
1.0
145
0.0
146
1.0
147
0.09
 71
     0
 72
     0
 73
     1
 74
     1
 75
     0
 76
     0
 77
     0
 78
     0
170
     0
171
     2
172
     0
173
     0
174
     0
175
     0
176
     0
177
     0
178
     0
  0
DIMSTYLE
  2
ENGLISH
 70
     0
  3

  4
mm
  5

  6

  7

 40
2.6666
 41
0.18
 42
0.0625
 43
0.38
 44
0.18
 45
0.0
 46
0.0
 47
0.0
 48
0.0
140
0.125
141
0.09
142
0.0
143
25.4
144
1.0
145
0.0
146
1.0
147
0.09
 71
     0
 72
     0
 73
     1
 74
     1
 75
     0
 76
     0
 77
     0
 78
     0
170
     0
171
     2
172
     0
173
     0
174
     0
175
     0
176
     0
177
     0
178
     0
  0
ENDTAB
  0
ENDSEC
  0
SECTION
  2
BLOCKS
  0
BLOCK
  8
0
  2
$MODEL_SPACE
 70
     0
 10
0.0
 20
0.0
 30
0.0
  3
$MODEL_SPACE
  1

  0
ENDBLK
  5
1B
  8
0
  0
BLOCK
 67
     1
  8
0
  2
$PAPER_SPACE
 70
     0
 10
0.0
 20
0.0
 30
0.0
  3
$PAPER_SPACE
  1

  0
ENDBLK
  5
18
 67
     1
  8
0
  0
BLOCK
  8
0
  2
MASTER-BORDER
 70
     0
 10
0.0
 20
0.0
 30
0.0
  3
MASTER-BORDER
  1

  0
POLYLINE
  5
54
  8
BORDER
 66
     1
 10
0.0
 20
0.0
 30
0.0
 70
     1
  0
VERTEX
  5
261D
  8
BORDER
 10
0.5
 20
0.5
 30
0.0
  0
VERTEX
  5
261E
  8
BORDER
 10
16.5
 20
0.5
 30
0.0
  0
VERTEX
  5
261F
  8
BORDER
 10
16.5
 20
10.5
 30
0.0
  0
VERTEX
  5
2620
  8
BORDER
 10
0.5
 20
10.5
 30
0.0
  0
SEQEND
  5
2621
  8
BORDER
  0
ENDBLK
  5
55
  8
0
  0
BLOCK
  8
0
  2
*X1
 70
     1
 10
0.0
 20
0.0
 30
0.0
  3
*X1
  1

  0
LINE
  5
5A
  8
0
 62
     0
 10
5.453968
 20
1.575
 30
0.0
 11
5.807877
 21
1.575
 31
0.0
  0
LINE
  5
5B
  8
0
 62
     0
 10
5.456968
 20
1.582
 30
0.0
 11
5.810877
 21
1.582
 31
0.0
  0
LINE
  5
5C
  8
0
 62
     0
 10
5.459968
 20
1.589
 30
0.0
 11
5.813877
 21
1.589
 31
0.0
  0
LINE
  5
5D
  8
0
 62
     0
 10
5.462968
 20
1.596
 30
0.0
 11
5.816877
 21
1.596
 31
0.0
  0
LINE
  5
5E
  8
0
 62
     0
 10
5.465968
 20
1.603
 30
0.0
 11
5.819877
 21
1.603
 31
0.0
  0
LINE
  5
5F
  8
0
 62
     0
 10
5.468968
 20
1.61
 30
0.0
 11
5.822877
 21
1.61
 31
0.0
  0
LINE
  5
60
  8
0
 62
     0
 10
5.471968
 20
1.617
 30
0.0
 11
5.825877
 21
1.617
 31
0.0
  0
LINE
  5
61
  8
0
 62
     0
 10
5.474968
 20
1.624
 30
0.0
 11
5.828877
 21
1.624
 31
0.0
  0
LINE
  5
62
  8
0
 62
     0
 10
5.477968
 20
1.631
 30
0.0
 11
5.831877
 21
1.631
 31
0.0
  0
LINE
  5
63
  8
0
 62
     0
 10
5.480968
 20
1.638
 30
0.0
 11
5.834877
 21
1.638
 31
0.0
  0
LINE
  5
64
  8
0
 62
     0
 10
5.483968
 20
1.645
 30
0.0
 11
5.837877
 21
1.645
 31
0.0
  0
LINE
  5
65
  8
0
 62
     0
 10
5.486968
 20
1.652
 30
0.0
 11
5.840877
 21
1.652
 31
0.0
  0
LINE
  5
66
  8
0
 62
     0
 10
5.489968
 20
1.659
 30
0.0
 11
5.843877
 21
1.659
 31
0.0
  0
LINE
  5
67
  8
0
 62
     0
 10
5.492968
 20
1.666
 30
0.0
 11
5.846877
 21
1.666
 31
0.0
  0
LINE
  5
68
  8
0
 62
     0
 10
5.495968
 20
1.673
 30
0.0
 11
5.849877
 21
1.673
 31
0.0
  0
LINE
  5
69
  8
0
 62
     0
 10
5.498968
 20
1.68
 30
0.0
 11
5.852877
 21
1.68
 31
0.0
  0
LINE
  5
6A
  8
0
 62
     0
 10
5.511085
 20
1.428
 30
0.0
 11
5.62476
 21
1.428
 31
0.0
  0
LINE
  5
6B
  8
0
 62
     0
 10
5.508085
 20
1.421
 30
0.0
 11
5.62176
 21
1.421
 31
0.0
  0
LINE
  5
6C
  8
0
 62
     0
 10
5.505085
 20
1.414
 30
0.0
 11
5.61876
 21
1.414
 31
0.0
  0
LINE
  5
6D
  8
0
 62
     0
 10
5.502085
 20
1.407
 30
0.0
 11
5.61576
 21
1.407
 31
0.0
  0
LINE
  5
6E
  8
0
 62
     0
 10
5.499085
 20
1.4
 30
0.0
 11
5.61276
 21
1.4
 31
0.0
  0
LINE
  5
6F
  8
0
 62
     0
 10
5.496085
 20
1.393
 30
0.0
 11
5.60976
 21
1.393
 31
0.0
  0
LINE
  5
70
  8
0
 62
     0
 10
5.493085
 20
1.386
 30
0.0
 11
5.60676
 21
1.386
 31
0.0
  0
LINE
  5
71
  8
0
 62
     0
 10
5.490085
 20
1.379
 30
0.0
 11
5.60376
 21
1.379
 31
0.0
  0
LINE
  5
72
  8
0
 62
     0
 10
5.487085
 20
1.372
 30
0.0
 11
5.60076
 21
1.372
 31
0.0
  0
LINE
  5
73
  8
0
 62
     0
 10
5.484085
 20
1.365
 30
0.0
 11
5.59776
 21
1.365
 31
0.0
  0
LINE
  5
74
  8
0
 62
     0
 10
5.481085
 20
1.358
 30
0.0
 11
5.59476
 21
1.358
 31
0.0
  0
LINE
  5
75
  8
0
 62
     0
 10
5.478085
 20
1.351
 30
0.0
 11
5.59176
 21
1.351
 31
0.0
  0
LINE
  5
76
  8
0
 62
     0
 10
5.475085
 20
1.344
 30
0.0
 11
5.58876
 21
1.344
 31
0.0
  0
LINE
  5
77
  8
0
 62
     0
 10
5.472085
 20
1.337
 30
0.0
 11
5.58576
 21
1.337
 31
0.0
  0
LINE
  5
78
  8
0
 62
     0
 10
5.469085
 20
1.33
 30
0.0
 11
5.58276
 21
1.33
 31
0.0
  0
LINE
  5
79
  8
0
 62
     0
 10
5.466085
 20
1.323
 30
0.0
 11
5.57976
 21
1.323
 31
0.0
  0
ENDBLK
  5
7B
  8
0
  0
BLOCK
  8
0
  2
*X2
 70
     1
 10
0.0
 20
0.0
 30
0.0
  3
*X2
  1

  0
LINE
  5
7D
  8
0
 62
     0
 10
5.838431
 20
1.575
 30
0.0
 11
6.177018
 21
1.575
 31
0.0
  0
LINE
  5
7E
  8
0
 62
     0
 10
5.842373
 20
1.582
 30
0.0
 11
6.180018
 21
1.582
 31
0.0
  0
LINE
  5
7F
  8
0
 62
     0
 10
5.846611
 20
1.589
 30
0.0
 11
6.183018
 21
1.589
 31
0.0
  0
LINE
  5
80
  8
0
 62
     0
 10
5.851164
 20
1.596
 30
0.0
 11
6.186018
 21
1.596
 31
0.0
  0
LINE
  5
81
  8
0
 62
     0
 10
5.856051
 20
1.603
 30
0.0
 11
6.189018
 21
1.603
 31
0.0
  0
LINE
  5
82
  8
0
 62
     0
 10
5.861297
 20
1.61
 30
0.0
 11
6.192018
 21
1.61
 31
0.0
  0
LINE
  5
83
  8
0
 62
     0
 10
5.86693
 20
1.617
 30
0.0
 11
6.195018
 21
1.617
 31
0.0
  0
LINE
  5
84
  8
0
 62
     0
 10
5.873042
 20
1.624
 30
0.0
 11
6.198018
 21
1.624
 31
0.0
  0
LINE
  5
85
  8
0
 62
     0
 10
5.879781
 20
1.631
 30
0.0
 11
6.201018
 21
1.631
 31
0.0
  0
LINE
  5
86
  8
0
 62
     0
 10
5.887247
 20
1.638
 30
0.0
 11
6.204018
 21
1.638
 31
0.0
  0
LINE
  5
87
  8
0
 62
     0
 10
5.895574
 20
1.645
 30
0.0
 11
6.207018
 21
1.645
 31
0.0
  0
LINE
  5
88
  8
0
 62
     0
 10
5.904954
 20
1.652
 30
0.0
 11
6.210018
 21
1.652
 31
0.0
  0
LINE
  5
89
  8
0
 62
     0
 10
5.91568
 20
1.659
 30
0.0
 11
6.213018
 21
1.659
 31
0.0
  0
LINE
  5
8A
  8
0
 62
     0
 10
5.928514
 20
1.666
 30
0.0
 11
6.216018
 21
1.666
 31
0.0
  0
LINE
  5
8B
  8
0
 62
     0
 10
5.945646
 20
1.673
 30
0.0
 11
6.219018
 21
1.673
 31
0.0
  0
LINE
  5
8C
  8
0
 62
     0
 10
5.977809
 20
1.68
 30
0.0
 11
6.222018
 21
1.68
 31
0.0
  0
LINE
  5
8D
  8
0
 62
     0
 10
5.810219
 20
1.428
 30
0.0
 11
6.114018
 21
1.428
 31
0.0
  0
LINE
  5
8E
  8
0
 62
     0
 10
5.811489
 20
1.421
 30
0.0
 11
6.111018
 21
1.421
 31
0.0
  0
LINE
  5
8F
  8
0
 62
     0
 10
5.813027
 20
1.414
 30
0.0
 11
6.108018
 21
1.414
 31
0.0
  0
LINE
  5
90
  8
0
 62
     0
 10
5.814898
 20
1.407
 30
0.0
 11
6.105018
 21
1.407
 31
0.0
  0
LINE
  5
91
  8
0
 62
     0
 10
5.817144
 20
1.4
 30
0.0
 11
6.102018
 21
1.4
 31
0.0
  0
LINE
  5
92
  8
0
 62
     0
 10
5.819782
 20
1.393
 30
0.0
 11
6.099018
 21
1.393
 31
0.0
  0
LINE
  5
93
  8
0
 62
     0
 10
5.822835
 20
1.386
 30
0.0
 11
6.096018
 21
1.386
 31
0.0
  0
LINE
  5
94
  8
0
 62
     0
 10
5.826334
 20
1.379
 30
0.0
 11
6.093018
 21
1.379
 31
0.0
  0
LINE
  5
95
  8
0
 62
     0
 10
5.830314
 20
1.372
 30
0.0
 11
6.090018
 21
1.372
 31
0.0
  0
LINE
  5
96
  8
0
 62
     0
 10
5.834822
 20
1.365
 30
0.0
 11
6.087018
 21
1.365
 31
0.0
  0
LINE
  5
97
  8
0
 62
     0
 10
5.839922
 20
1.358
 30
0.0
 11
6.084018
 21
1.358
 31
0.0
  0
LINE
  5
98
  8
0
 62
     0
 10
5.845922
 20
1.351
 30
0.0
 11
6.081018
 21
1.351
 31
0.0
  0
LINE
  5
99
  8
0
 62
     0
 10
5.853204
 20
1.344
 30
0.0
 11
6.078018
 21
1.344
 31
0.0
  0
LINE
  5
9A
  8
0
 62
     0
 10
5.862265
 20
1.337
 30
0.0
 11
6.075018
 21
1.337
 31
0.0
  0
LINE
  5
9B
  8
0
 62
     0
 10
5.874173
 20
1.33
 30
0.0
 11
6.072018
 21
1.33
 31
0.0
  0
LINE
  5
9C
  8
0
 62
     0
 10
5.89256
 20
1.323
 30
0.0
 11
6.069018
 21
1.323
 31
0.0
  0
ENDBLK
  5
9E
  8
0
  0
BLOCK
  8
0
  2
*X3
 70
     1
 10
0.0
 20
0.0
 30
0.0
  3
*X3
  1

  0
LINE
  5
A0
  8
0
 62
     0
 10
6.221546
 20
1.575
 30
0.0
 11
6.335221
 21
1.575
 31
0.0
  0
LINE
  5
A1
  8
0
 62
     0
 10
6.224546
 20
1.582
 30
0.0
 11
6.338221
 21
1.582
 31
0.0
  0
LINE
  5
A2
  8
0
 62
     0
 10
6.227546
 20
1.589
 30
0.0
 11
6.341221
 21
1.589
 31
0.0
  0
LINE
  5
A3
  8
0
 62
     0
 10
6.230546
 20
1.596
 30
0.0
 11
6.344221
 21
1.596
 31
0.0
  0
LINE
  5
A4
  8
0
 62
     0
 10
6.233546
 20
1.603
 30
0.0
 11
6.347221
 21
1.603
 31
0.0
  0
LINE
  5
A5
  8
0
 62
     0
 10
6.236546
 20
1.61
 30
0.0
 11
6.350221
 21
1.61
 31
0.0
  0
LINE
  5
A6
  8
0
 62
     0
 10
6.239546
 20
1.617
 30
0.0
 11
6.353221
 21
1.617
 31
0.0
  0
LINE
  5
A7
  8
0
 62
     0
 10
6.242546
 20
1.624
 30
0.0
 11
6.356221
 21
1.624
 31
0.0
  0
LINE
  5
A8
  8
0
 62
     0
 10
6.245546
 20
1.631
 30
0.0
 11
6.359221
 21
1.631
 31
0.0
  0
LINE
  5
A9
  8
0
 62
     0
 10
6.248546
 20
1.638
 30
0.0
 11
6.362221
 21
1.638
 31
0.0
  0
LINE
  5
AA
  8
0
 62
     0
 10
6.251546
 20
1.645
 30
0.0
 11
6.365221
 21
1.645
 31
0.0
  0
LINE
  5
AB
  8
0
 62
     0
 10
6.254546
 20
1.652
 30
0.0
 11
6.368221
 21
1.652
 31
0.0
  0
LINE
  5
AC
  8
0
 62
     0
 10
6.257546
 20
1.659
 30
0.0
 11
6.371221
 21
1.659
 31
0.0
  0
LINE
  5
AD
  8
0
 62
     0
 10
6.260546
 20
1.666
 30
0.0
 11
6.374221
 21
1.666
 31
0.0
  0
LINE
  5
AE
  8
0
 62
     0
 10
6.263546
 20
1.673
 30
0.0
 11
6.377221
 21
1.673
 31
0.0
  0
LINE
  5
AF
  8
0
 62
     0
 10
6.266546
 20
1.68
 30
0.0
 11
6.380221
 21
1.68
 31
0.0
  0
LINE
  5
B0
  8
0
 62
     0
 10
6.158546
 20
1.428
 30
0.0
 11
6.272221
 21
1.428
 31
0.0
  0
LINE
  5
B1
  8
0
 62
     0
 10
6.155546
 20
1.421
 30
0.0
 11
6.269221
 21
1.421
 31
0.0
  0
LINE
  5
B2
  8
0
 62
     0
 10
6.152546
 20
1.414
 30
0.0
 11
6.266221
 21
1.414
 31
0.0
  0
LINE
  5
B3
  8
0
 62
     0
 10
6.149546
 20
1.407
 30
0.0
 11
6.263221
 21
1.407
 31
0.0
  0
LINE
  5
B4
  8
0
 62
     0
 10
6.146546
 20
1.4
 30
0.0
 11
6.260221
 21
1.4
 31
0.0
  0
LINE
  5
B5
  8
0
 62
     0
 10
6.143546
 20
1.393
 30
0.0
 11
6.257221
 21
1.393
 31
0.0
  0
LINE
  5
B6
  8
0
 62
     0
 10
6.140546
 20
1.386
 30
0.0
 11
6.254221
 21
1.386
 31
0.0
  0
LINE
  5
B7
  8
0
 62
     0
 10
6.137546
 20
1.379
 30
0.0
 11
6.251221
 21
1.379
 31
0.0
  0
LINE
  5
B8
  8
0
 62
     0
 10
6.134546
 20
1.372
 30
0.0
 11
6.248221
 21
1.372
 31
0.0
  0
LINE
  5
B9
  8
0
 62
     0
 10
6.131546
 20
1.365
 30
0.0
 11
6.245221
 21
1.365
 31
0.0
  0
LINE
  5
BA
  8
0
 62
     0
 10
6.128546
 20
1.358
 30
0.0
 11
6.242221
 21
1.358
 31
0.0
  0
LINE
  5
BB
  8
0
 62
     0
 10
6.125546
 20
1.351
 30
0.0
 11
6.239221
 21
1.351
 31
0.0
  0
LINE
  5
BC
  8
0
 62
     0
 10
6.122546
 20
1.344
 30
0.0
 11
6.236221
 21
1.344
 31
0.0
  0
LINE
  5
BD
  8
0
 62
     0
 10
6.119546
 20
1.337
 30
0.0
 11
6.233221
 21
1.337
 31
0.0
  0
LINE
  5
BE
  8
0
 62
     0
 10
6.116546
 20
1.33
 30
0.0
 11
6.230221
 21
1.33
 31
0.0
  0
LINE
  5
BF
  8
0
 62
     0
 10
6.113546
 20
1.323
 30
0.0
 11
6.227221
 21
1.323
 31
0.0
  0
ENDBLK
  5
C1
  8
0
  0
BLOCK
  8
0
  2
TITLEB
 70
     2
 10
0.0
 20
0.0
 30
0.0
  3
TITLEB
  1

  0
LINE
  5
C3
  8
0
 10
0.0
 20
1.75
 30
0.0
 11
-8.75
 21
1.75
 31
0.0
  0
LINE
  5
C4
  8
0
 10
-8.75
 20
0.0
 30
0.0
 11
-8.75
 21
1.75
 31
0.0
  0
LINE
  5
C5
  8
0
 10
-3.75
 20
0.0
 30
0.0
 11
-3.75
 21
1.75
 31
0.0
  0
LINE
  5
C6
  8
0
 10
-4.75
 20
0.0
 30
0.0
 11
-4.75
 21
1.75
 31
0.0
  0
LINE
  5
C7
  8
0
 10
0.0
 20
1.25
 30
0.0
 11
-3.75
 21
1.25
 31
0.0
  0
LINE
  5
C8
  8
0
 10
0.0
 20
0.5
 30
0.0
 11
-3.75
 21
0.5
 31
0.0
  0
LINE
  5
C9
  8
0
 10
-1.75
 20
0.25
 30
0.0
 11
-3.75
 21
0.25
 31
0.0
  0
LINE
  5
CA
  8
0
 10
-2.75
 20
0.0
 30
0.0
 11
-2.75
 21
0.5
 31
0.0
  0
LINE
  5
CB
  8
0
 10
-1.75
 20
0.0
 30
0.0
 11
-1.75
 21
0.5
 31
0.0
  0
LINE
  5
CC
  8
0
 10
-8.75
 20
0.25
 30
0.0
 11
-4.75
 21
0.25
 31
0.0
  0
LINE
  5
CD
  8
0
 10
-8.75
 20
0.5
 30
0.0
 11
-4.75
 21
0.5
 31
0.0
  0
LINE
  5
CE
  8
0
 10
-8.75
 20
0.75
 30
0.0
 11
-4.75
 21
0.75
 31
0.0
  0
LINE
  5
CF
  8
0
 10
-8.75
 20
1.0
 30
0.0
 11
-4.75
 21
1.0
 31
0.0
  0
LINE
  5
D0
  8
0
 10
-8.75
 20
1.25
 30
0.0
 11
-4.75
 21
1.25
 31
0.0
  0
LINE
  5
D1
  8
0
 10
-8.75
 20
1.5
 30
0.0
 11
-4.75
 21
1.5
 31
0.0
  0
LINE
  5
D2
  8
0
 10
-8.5
 20
0.0
 30
0.0
 11
-8.5
 21
0.25
 31
0.0
  0
LINE
  5
D3
  8
0
 10
-5.25
 20
0.0
 30
0.0
 11
-5.25
 21
0.25
 31
0.0
  0
LINE
  5
D4
  8
0
 10
-6.0
 20
0.0
 30
0.0
 11
-6.0
 21
0.25
 31
0.0
  0
TEXT
  5
D5
  8
0
 10
-2.0625
 20
1.5
 30
0.0
 40
0.125
  1
7878 N. 86th STREET
 41
0.8
  0
TEXT
  5
D6
  8
0
 10
-2.0625
 20
1.3125
 30
0.0
 40
0.125
  1
MILWAUKEE, WI 53224
 41
0.8
  0
POLYLINE
  5
D7
  8
0
 66
     1
 10
0.0
 20
0.0
 30
0.0
 70
     1
  0
VERTEX
  5
2622
  8
0
 10
-3.285415
 20
1.3195
 30
0.0
  0
VERTEX
  5
2623
  8
0
 10
-3.238681
 20
1.428547
 30
0.0
  0
VERTEX
  5
2624
  8
0
 10
-3.125006
 20
1.428547
 30
0.0
  0
VERTEX
  5
2625
  8
0
 10
-3.17174
 20
1.3195
 30
0.0
  0
SEQEND
  5
2626
  8
0
  0
POLYLINE
  5
D8
  8
0
 66
     1
 10
0.0
 20
0.0
 30
0.0
 70
     1
  0
VERTEX
  5
2627
  8
0
 10
-3.250818
 20
1.6805
 30
0.0
  0
VERTEX
  5
2628
  8
0
 10
-2.896909
 20
1.6805
 30
0.0
  0
VERTEX
  5
2629
  8
0
 10
-2.943643
 20
1.571453
 30
0.0
  0
VERTEX
  5
262A
  8
0
 10
-3.297552
 20
1.571453
 30
0.0
  0
SEQEND
  5
262B
  8
0
  0
POLYLINE
  5
D9
  8
0
 66
     1
 10
0.0
 20
0.0
 30
0.0
 70
     1
  0
VERTEX
  5
262C
  8
0
 10
-3.189991
 20
1.542156
 30
0.0
  0
VERTEX
  5
262D
  8
0
 10
-3.188457
 20
1.545734
 30
0.0
  0
VERTEX
  5
262E
  8
0
 10
-3.074783
 20
1.545734
 30
0.0
  0
VERTEX
  5
262F
  8
0
 10
-3.076316
 20
1.542156
 30
0.0
  0
SEQEND
  5
2630
  8
0
  0
POLYLINE
  5
DA
  8
0
 66
     1
 10
0.0
 20
0.0
 30
0.0
 70
     1
  0
VERTEX
  5
2631
  8
0
 10
-3.202547
 20
1.512859
 30
0.0
  0
VERTEX
  5
2632
  8
0
 10
-3.201013
 20
1.516438
 30
0.0
  0
VERTEX
  5
2633
  8
0
 10
-3.087338
 20
1.516438
 30
0.0
  0
VERTEX
  5
2634
  8
0
 10
-3.088872
 20
1.512859
 30
0.0
  0
SEQEND
  5
2635
  8
0
  0
POLYLINE
  5
DB
  8
0
 66
     1
 10
0.0
 20
0.0
 30
0.0
 70
     1
  0
VERTEX
  5
2636
  8
0
 10
-3.215102
 20
1.483563
 30
0.0
  0
VERTEX
  5
2637
  8
0
 10
-3.213569
 20
1.487141
 30
0.0
  0
VERTEX
  5
2638
  8
0
 10
-3.099894
 20
1.487141
 30
0.0
  0
VERTEX
  5
2639
  8
0
 10
-3.101428
 20
1.483563
 30
0.0
  0
SEQEND
  5
263A
  8
0
  0
POLYLINE
  5
DC
  8
0
 66
     1
 10
0.0
 20
0.0
 30
0.0
 70
     1
  0
VERTEX
  5
263B
  8
0
 10
-3.227658
 20
1.454266
 30
0.0
  0
VERTEX
  5
263C
  8
0
 10
-3.226125
 20
1.457844
 30
0.0
  0
VERTEX
  5
263D
  8
0
 10
-3.11245
 20
1.457844
 30
0.0
  0
VERTEX
  5
263E
  8
0
 10
-3.113984
 20
1.454266
 30
0.0
  0
SEQEND
  5
263F
  8
0
  0
INSERT
  5
DD
  8
0
  2
*X1
 10
-8.75
 20
0.0
 30
0.0
  0
POLYLINE
  5
DE
  8
0
 66
     1
 10
0.0
 20
0.0
 30
0.0
 70
     1
  0
VERTEX
  5
2640
  8
0
 10
-2.762231
 20
1.6805
 30
0.0
  0
VERTEX
  5
2641
  8
0
 10
-2.527768
 20
1.6805
 30
0.0
  0
VERTEX
  5
2642
  8
0
 10
-2.574503
 20
1.571453
 30
0.0
  0
VERTEX
  5
2643
  8
0
 10
-2.913459
 20
1.571453
 30
0.0
 42
-0.054429
  0
VERTEX
  5
2644
  8
0
 10
-2.882411
 20
1.617787
 30
0.0
 42
-0.084542
  0
VERTEX
  5
2645
  8
0
 10
-2.832469
 20
1.660109
 30
0.0
 42
-0.106399
  0
VERTEX
  5
2646
  8
0
 10
-2.77324
 20
1.679889
 30
0.0
 42
-0.027585
  0
SEQEND
  5
2647
  8
0
  0
POLYLINE
  5
DF
  8
0
 66
     1
 10
0.0
 20
0.0
 30
0.0
 70
     1
  0
VERTEX
  5
2648
  8
0
 10
-2.926512
 20
1.542156
 30
0.0
 42
-0.003726
  0
VERTEX
  5
2649
  8
0
 10
-2.925148
 20
1.545734
 30
0.0
  0
VERTEX
  5
264A
  8
0
 10
-2.798667
 20
1.545734
 30
0.0
 42
0.007822
  0
VERTEX
  5
264B
  8
0
 10
-2.80153
 20
1.542156
 30
0.0
  0
SEQEND
  5
264C
  8
0
  0
POLYLINE
  5
E0
  8
0
 66
     1
 10
0.0
 20
0.0
 30
0.0
 70
     1
  0
VERTEX
  5
264D
  8
0
 10
-2.940789
 20
1.483563
 30
0.0
 42
-0.00463
  0
VERTEX
  5
264E
  8
0
 10
-2.940306
 20
1.487141
 30
0.0
  0
VERTEX
  5
264F
  8
0
 10
-2.828053
 20
1.487141
 30
0.0
 42
0.006268
  0
VERTEX
  5
2650
  8
0
 10
-2.828878
 20
1.483563
 30
0.0
  0
SEQEND
  5
2651
  8
0
  0
POLYLINE
  5
E1
  8
0
 66
     1
 10
0.0
 20
0.0
 30
0.0
 70
     1
  0
VERTEX
  5
2652
  8
0
 10
-2.942242
 20
1.454266
 30
0.0
 42
-0.004589
  0
VERTEX
  5
2653
  8
0
 10
-2.942301
 20
1.457844
 30
0.0
  0
VERTEX
  5
2654
  8
0
 10
-2.831832
 20
1.457844
 30
0.0
 42
0.010595
  0
VERTEX
  5
2655
  8
0
 10
-2.831695
 20
1.454266
 30
0.0
  0
SEQEND
  5
2656
  8
0
  0
POLYLINE
  5
E2
  8
0
 66
     1
 10
0.0
 20
0.0
 30
0.0
 70
     1
  0
VERTEX
  5
2657
  8
0
 10
-2.831225
 20
1.319503
 30
0.0
 42
-0.10157
  0
VERTEX
  5
2658
  8
0
 10
-2.870619
 20
1.327589
 30
0.0
 42
-0.129518
  0
VERTEX
  5
2659
  8
0
 10
-2.910794
 20
1.35893
 30
0.0
 42
-0.106399
  0
VERTEX
  5
265A
  8
0
 10
-2.937318
 20
1.415461
 30
0.0
 42
-0.017101
  0
VERTEX
  5
265B
  8
0
 10
-2.939869
 20
1.428547
 30
0.0
  0
VERTEX
  5
265C
  8
0
 10
-2.635748
 20
1.428547
 30
0.0
  0
VERTEX
  5
265D
  8
0
 10
-2.682482
 20
1.3195
 30
0.0
  0
SEQEND
  5
265E
  8
0
  0
ARC
  5
E3
  8
0
 10
-2.685747
 20
1.452436
 30
0.0
 40
0.139477
 50
156.801409
 51
157.478869
  0
POLYLINE
  5
E4
  8
0
 66
     1
 10
0.0
 20
0.0
 30
0.0
 70
     1
  0
VERTEX
  5
265F
  8
0
 10
-2.81918
 20
1.512859
 30
0.0
  0
VERTEX
  5
2660
  8
0
 10
-2.93548
 20
1.512859
 30
0.0
 42
-0.003588
  0
VERTEX
  5
2661
  8
0
 10
-2.934587
 20
1.516438
 30
0.0
  0
VERTEX
  5
2662
  8
0
 10
-2.817501
 20
1.516438
 30
0.0
 42
0.006746
  0
SEQEND
  5
2663
  8
0
  0
INSERT
  5
E5
  8
0
  2
*X2
 10
-8.75
 20
0.0
 30
0.0
  0
POLYLINE
  5
E6
  8
0
 66
     1
 10
0.0
 20
0.0
 30
0.0
 70
     1
  0
VERTEX
  5
2664
  8
0
 10
-2.416299
 20
1.571453
 30
0.0
  0
VERTEX
  5
2665
  8
0
 10
-2.529974
 20
1.571453
 30
0.0
  0
VERTEX
  5
2666
  8
0
 10
-2.48324
 20
1.6805
 30
0.0
  0
VERTEX
  5
2667
  8
0
 10
-2.369565
 20
1.6805
 30
0.0
  0
SEQEND
  5
2668
  8
0
  0
POLYLINE
  5
E7
  8
0
 66
     1
 10
0.0
 20
0.0
 30
0.0
 70
     1
  0
VERTEX
  5
2669
  8
0
 10
-2.54253
 20
1.542156
 30
0.0
  0
VERTEX
  5
266A
  8
0
 10
-2.540996
 20
1.545734
 30
0.0
  0
VERTEX
  5
266B
  8
0
 10
-2.427322
 20
1.545734
 30
0.0
  0
VERTEX
  5
266C
  8
0
 10
-2.428855
 20
1.542156
 30
0.0
  0
SEQEND
  5
266D
  8
0
  0
POLYLINE
  5
E8
  8
0
 66
     1
 10
0.0
 20
0.0
 30
0.0
 70
     1
  0
VERTEX
  5
266E
  8
0
 10
-2.555086
 20
1.512859
 30
0.0
  0
VERTEX
  5
266F
  8
0
 10
-2.553552
 20
1.516438
 30
0.0
  0
VERTEX
  5
2670
  8
0
 10
-2.439878
 20
1.516438
 30
0.0
  0
VERTEX
  5
2671
  8
0
 10
-2.441411
 20
1.512859
 30
0.0
  0
SEQEND
  5
2672
  8
0
  0
POLYLINE
  5
E9
  8
0
 66
     1
 10
0.0
 20
0.0
 30
0.0
 70
     1
  0
VERTEX
  5
2673
  8
0
 10
-2.567641
 20
1.483563
 30
0.0
  0
VERTEX
  5
2674
  8
0
 10
-2.566108
 20
1.487141
 30
0.0
  0
VERTEX
  5
2675
  8
0
 10
-2.452433
 20
1.487141
 30
0.0
  0
VERTEX
  5
2676
  8
0
 10
-2.453967
 20
1.483563
 30
0.0
  0
SEQEND
  5
2677
  8
0
  0
POLYLINE
  5
EA
  8
0
 66
     1
 10
0.0
 20
0.0
 30
0.0
 70
     1
  0
VERTEX
  5
2678
  8
0
 10
-2.580197
 20
1.454266
 30
0.0
  0
VERTEX
  5
2679
  8
0
 10
-2.578664
 20
1.457844
 30
0.0
  0
VERTEX
  5
267A
  8
0
 10
-2.464989
 20
1.457844
 30
0.0
  0
VERTEX
  5
267B
  8
0
 10
-2.466523
 20
1.454266
 30
0.0
  0
SEQEND
  5
267C
  8
0
  0
POLYLINE
  5
EB
  8
0
 66
     1
 10
0.0
 20
0.0
 30
0.0
 70
     1
  0
VERTEX
  5
267D
  8
0
 10
-2.637954
 20
1.3195
 30
0.0
  0
VERTEX
  5
267E
  8
0
 10
-2.59122
 20
1.428547
 30
0.0
  0
VERTEX
  5
267F
  8
0
 10
-2.477545
 20
1.428547
 30
0.0
  0
VERTEX
  5
2680
  8
0
 10
-2.524279
 20
1.3195
 30
0.0
  0
SEQEND
  5
2681
  8
0
  0
INSERT
  5
EC
  8
0
  2
*X3
 10
-8.75
 20
0.0
 30
0.0
  0
TEXT
  5
ED
  8
0
 10
-3.71875
 20
0.40625
 30
0.0
 40
0.0625
  1
DRN. BY
 41
0.8
  0
TEXT
  5
EE
  8
0
 10
-2.71875
 20
0.40625
 30
0.0
 40
0.0625
  1
DATE
 41
0.8
  0
TEXT
  5
EF
  8
0
 10
-1.71875
 20
0.40625
 30
0.0
 40
0.0625
  1
DWG. NO.
 41
0.8
  0
TEXT
  5
F0
  8
0
 10
-2.71875
 20
0.15625
 30
0.0
 40
0.0625
  1
APRVD.
 41
0.8
  0
TEXT
  5
F1
  8
0
 10
-3.71875
 20
0.15625
 30
0.0
 40
0.0625
  1
SCALE
 41
0.8
  0
TEXT
  5
F2
  8
0
 10
-4.59375
 20
1.625
 30
0.0
 40
0.09
  1
TOLERANCES
 41
0.8
  0
TEXT
  5
F3
  8
0
 10
-4.71875
 20
1.375
 30
0.0
 40
0.0625
  1
DECIMAL
 41
0.8
  0
TEXT
  5
F4
  8
0
 10
-4.71875
 20
0.65625
 30
0.0
 40
0.0625
  1
FRACTIONAL
 41
0.8
  0
TEXT
  5
F5
  8
0
 10
-4.71875
 20
0.28125
 30
0.0
 40
0.0625
  1
ANGULAR
 41
0.8
  0
LINE
  5
F6
  8
0
 10
-4.75
 20
1.46875
 30
0.0
 11
-3.75
 21
1.46875
 31
0.0
  0
TEXT
  5
F7
  8
0
 10
-4.625
 20
1.5
 30
0.0
 40
0.0625
  1
(EXCEPT AS NOTED)
 41
0.8
  0
LINE
  5
F8
  8
0
 10
-4.75
 20
0.375
 30
0.0
 11
-3.75
 21
0.375
 31
0.0
  0
LINE
  5
F9
  8
0
 10
-4.75
 20
0.75
 30
0.0
 11
-3.75
 21
0.75
 31
0.0
  0
TEXT
  5
FA
  8
0
 10
-4.6875
 20
1.09375
 30
0.0
 40
0.125
  1
.XX %%p
 41
0.8
  0
TEXT
  5
FB
  8
0
 10
-4.6875
 20
0.84375
 30
0.0
 40
0.125
  1
.XXX%%p
 41
0.8
  0
TEXT
  5
FC
  8
0
 10
-4.625
 20
0.46875
 30
0.0
 40
0.125
  1
%%p
 41
0.8
  0
TEXT
  5
FD
  8
0
 10
-4.625
 20
0.09375
 30
0.0
 40
0.125
  1
%%p
 41
0.8
  0
TEXT
  5
FE
  8
0
 10
-5.09375
 20
0.0625
 30
0.0
 40
0.125
  1
BY
 41
0.8
  0
TEXT
  5
FF
  8
0
 10
-8.71875
 20
0.0625
 30
0.0
 40
0.125
  1
NO
 41
0.8
  0
TEXT
  5
100
  8
0
 10
-7.53125
 20
0.0625
 30
0.0
 40
0.125
  1
REVISION
 41
0.8
  0
TEXT
  5
101
  8
0
 10
-5.8125
 20
0.0625
 30
0.0
 40
0.125
  1
DATE
 41
0.8
  0
TEXT
  5
102
  8
0
 10
-0.9375
 20
0.03125
 30
0.0
 40
0.09
  1
SHT.    OF
 41
0.8
  0
ATTDEF
  5
103
  8
0
 10
-1.28125
 20
0.25
 30
0.0
 40
0.1875
  1

 41
0.8
  3
DRAWING NUMBER
  2
DWGNO
 70
     0
  0
ATTDEF
  5
104
  8
0
 10
-3.34375
 20
0.28125
 30
0.0
 40
0.125
  1

 41
0.8
  3
DRAWN BY
  2
DRNBY
 70
     0
  0
ATTDEF
  5
105
  8
0
 10
-2.5
 20
0.28125
 30
0.0
 40
0.125
  1

 41
1.631757
 72
     5
 11
-1.78125
 21
0.28125
 31
0.0
  3
DRAWING DATE
  2
DATE
 70
     0
  0
ATTDEF
  5
106
  8
0
 10
-3.40625
 20
0.03125
 30
0.0
 40
0.125
  1

 41
0.8
  3
SCALE
  2
SCALE
 70
     0
  0
ATTDEF
  5
107
  8
0
 10
-2.40625
 20
0.03125
 30
0.0
 40
0.125
  1

 41
0.8
  3
APPROVED BY
  2
APRVD
 70
     0
  0
ATTDEF
  5
108
  8
0
 10
-0.65625
 20
0.03125
 30
0.0
 40
0.125
  1

 41
0.8
  3
SHEET
  2
SHT
 70
     0
  0
ATTDEF
  5
109
  8
0
 10
-0.28125
 20
0.03125
 30
0.0
 40
0.125
  1

 41
0.8
  3
OF SHEET
  2
OFSHT
 70
     0
  0
ATTDEF
  5
10A
  8
0
 10
-3.59375
 20
0.875
 30
0.0
 40
0.1875
  1

 41
0.8
  3
DESCRIPTION (LINE 1 OF 2)
  2
DESC1
 70
     0
  0
ATTDEF
  5
10B
  8
0
 10
-3.59375
 20
0.59375
 30
0.0
 40
0.1875
  1

 41
0.8
  3
DESCRIPTION (LINE 2 OF 2)
  2
DESC2
 70
     0
  0
ATTDEF
  5
10C
  8
0
 10
-4.21875
 20
1.09375
 30
0.0
 40
0.125
  1
.01
 41
0.8
  3
TOLERANCE .XX
  2
TOLXX
 70
     0
  0
ATTDEF
  5
10D
  8
0
 10
-4.21875
 20
0.84375
 30
0.0
 40
0.125
  1
.005
 41
0.8
  3
TOLERANCE .XXX
  2
TOLXXX
 70
     0
  0
ATTDEF
  5
10E
  8
0
 10
-4.46875
 20
0.46875
 30
0.0
 40
0.125
  1
1/32
 41
0.8
  3
TOLERANCE - FRACTIONAL
  2
TOLFRAC
 70
     0
  0
ATTDEF
  5
10F
  8
0
 10
-4.46875
 20
0.09375
 30
0.0
 40
0.125
  1
1/2%%d
 41
0.8
  3
TOLERANCE - ANGULAR
  2
TOLANG
 70
     0
  0
ATTDEF
  5
110
  8
0
 10
-1.59375
 20
0.09375
 30
0.0
 40
0.25
  1

 41
0.8
  3

  2
DWG.SIZE
 70
     0
  0
ENDBLK
  5
112
  8
0
  0
BLOCK
  8
0
  2
REVISE12
 70
     2
 10
0.0
 20
0.0
 30
0.0
  3
REVISE12
  1

  0
ATTDEF
  5
18D8
  8
0
 10
0.03125
 20
0.0625
 30
0.0
 40
0.125
  1

 41
0.9
 72
     5
 11
0.21875
 21
0.0625
 31
0.0
  3
REVISION NO.
  2
NO
 70
     8
  0
ATTDEF
  5
18D9
  8
0
 10
0.3125
 20
0.0625
 30
0.0
 40
0.125
  1

  3
REVISION
  2
REV
 70
     8
  0
ATTDEF
  5
18DA
  8
0
 10
2.8125
 20
0.0625
 30
0.0
 40
0.125
  1

 41
1.125
 72
     5
 11
3.46875
 21
0.0625
 31
0.0
  3
REVISION DATE
  2
RDATE
 70
     8
  0
ATTDEF
  5
18DB
  8
0
 10
3.53125
 20
0.0625
 30
0.0
 40
0.125
  1

  3
REVISION BY
  2
BY
 70
     8
  0
LINE
  5
18DC
  8
0
 10
0.0
 20
0.0
 30
0.0
 11
0.0
 21
0.25
 31
0.0
  0
LINE
  5
18DD
  8
0
 10
0.25
 20
0.25
 30
0.0
 11
0.25
 21
0.0
 31
0.0
  0
LINE
  5
18DE
  8
0
 10
2.75
 20
0.25
 30
0.0
 11
2.75
 21
0.0
 31
0.0
  0
LINE
  5
18DF
  8
0
 10
3.5
 20
0.25
 30
0.0
 11
3.5
 21
0.0
 31
0.0
  0
ENDBLK
  5
18E1
  8
0
  0
ENDSEC
  0
SECTION
  2
ENTITIES
  0
INSERT
  5
56
  8
BORDER
  2
MASTER-BORDER
 10
0.0
 20
0.0
 30
0.0
 41
2.6666
 42
2.6666
 43
2.6666
1001
PAPERSPACE
1002
{
1040
0.0
1002
}
1001
MASTER_SIZING
1002
{
1040
0.0
1010
17.0
1020
11.0
1030
2.6666
1002
}
  0
INSERT
  5
113
  8
BORDER
 66
     1
  2
TITLEB
 10
43.9989
 20
1.3333
 30
0.0
 41
2.6666
 42
2.6666
 43
2.6666
1001
MASTER-TITLE
1002
{
1000
MGTITLE
1002
}
  0
ATTRIB
  5
114
  8
0
 10
40.582319
 20
1.99995
 30
0.0
 40
0.499988
  1
  C1
 41
0.8
  2
DWGNO
 70
     0
  0
ATTRIB
  5
115
  8
0
 10
35.082456
 20
2.083281
 30
0.0
 40
0.333325
  1
RJC
 41
0.8
  2
DRNBY
 70
     0
  0
ATTRIB
  5
116
  8
0
 10
37.3324
 20
2.083281
 30
0.0
 40
0.333325
  1
04-04-01
 41
0.841463
 72
     5
 11
39.249019
 21
2.083281
 31
0.0
  2
DATE
 70
     0
  0
ATTRIB
  5
117
  8
0
 10
34.915794
 20
1.416631
 30
0.0
 40
0.333325
  1
3/8"=1"
 41
0.8
  2
SCALE
 70
     0
  0
ATTRIB
  5
118
  8
0
 10
37.582394
 20
1.416631
 30
0.0
 40
0.333325
  1

 41
0.8
  2
APRVD
 70
     0
  0
ATTRIB
  5
119
  8
0
 10
42.248944
 20
1.416631
 30
0.0
 40
0.333325
  1
1
 41
0.8
  2
SHT
 70
     0
  0
ATTRIB
  5
11A
  8
0
 10
43.248919
 20
1.416631
 30
0.0
 40
0.333325
  1
 1
 41
0.8
  2
OFSHT
 70
     0
  0
ATTRIB
  5
11B
  8
0
 10
34.415806
 20
3.666575
 30
0.0
 40
0.499988
  1
KLC CABINET SIZE 1
 41
0.8
  2
DESC1
 70
     0
  0
ATTRIB
  5
11C
  8
0
 10
34.415806
 20
2.916594
 30
0.0
 40
0.499988
  1
BASE AND COVER
 41
0.8
  2
DESC2
 70
     0
  0
ATTRIB
  5
11D
  8
0
 10
32.749181
 20
4.249894
 30
0.0
 40
0.333325
  1
.01
 41
0.8
  2
TOLXX
 70
     0
  0
ATTRIB
  5
11E
  8
0
 10
32.749181
 20
3.583244
 30
0.0
 40
0.333325
  1
.005
 41
0.8
  2
TOLXXX
 70
     0
  0
ATTRIB
  5
11F
  8
0
 10
32.082531
 20
2.583269
 30
0.0
 40
0.333325
  1
1/32
 41
0.8
  2
TOLFRAC
 70
     0
  0
ATTRIB
  5
120
  8
0
 10
32.082531
 20
1.583294
 30
0.0
 40
0.333325
  1
1/2%%d
 41
0.8
  2
TOLANG
 70
     0
  0
ATTRIB
  5
121
  8
0
 10
39.749006
 20
1.583294
 30
0.0
 40
0.66665
  1
B
 41
0.8
  2
DWG.SIZE
 70
     0
  0
SEQEND
  5
122
  8
BORDER
  0
LINE
  5
A0C
  8
CENTERLINE
  6
CONTINUOUS
 10
31.907485
 20
8.719551
 30
0.0
 11
31.907485
 21
9.386051
 31
0.0
  0
LINE
  5
A0D
  8
CENTERLINE
  6
CONTINUOUS
 10
24.909277
 20
8.719551
 30
0.0
 11
24.909277
 21
9.386051
 31
0.0
  0
LINE
  5
A0E
  8
0
 10
28.498188
 20
13.418029
 30
0.0
 11
28.311188
 21
13.418029
 31
0.0
  0
LINE
  5
A0F
  8
0
 10
28.311188
 20
12.168029
 30
0.0
 11
28.498188
 21
12.168029
 31
0.0
  0
LINE
  5
A10
  8
0
 10
28.503577
 20
10.669759
 30
0.0
 11
28.316577
 21
10.669759
 31
0.0
  0
LINE
  5
A11
  8
HIDDEN
 10
28.503577
 20
9.419759
 30
0.0
 11
28.316577
 21
9.419759
 31
0.0
  0
LINE
  5
A12
  8
0
 10
24.479277
 20
10.039759
 30
0.0
 11
32.337485
 21
10.039759
 31
0.0
  0
LINE
  5
A13
  8
0
 10
24.479277
 20
9.039759
 30
0.0
 11
32.337485
 21
9.039759
 31
0.0
  0
LINE
  5
A14
  8
0
 10
32.337485
 20
15.54431
 30
0.0
 11
24.479277
 21
15.54431
 31
0.0
  0
LINE
  5
A15
  8
0
 10
32.337485
 20
15.47431
 30
0.0
 11
24.479277
 21
15.47431
 31
0.0
  0
LINE
  5
A16
  8
HIDDEN
 10
24.479277
 20
9.109759
 30
0.0
 11
32.337485
 21
9.109759
 31
0.0
  0
LINE
  5
A19
  8
0
 10
24.409277
 20
15.47431
 30
0.0
 11
24.409277
 21
9.109759
 31
0.0
  0
LINE
  5
A1A
  8
0
 10
24.479277
 20
15.47431
 30
0.0
 11
24.479277
 21
9.196386
 31
0.0
  0
LINE
  5
A1B
  8
0
 10
27.633012
 20
12.168029
 30
0.0
 11
27.633012
 21
13.418029
 31
0.0
  0
LINE
  5
A1C
  8
0
 10
27.446012
 20
13.418029
 30
0.0
 11
27.446012
 21
12.168029
 31
0.0
  0
LINE
  5
A1D
  8
0
 10
27.200423
 20
12.168029
 30
0.0
 11
27.200423
 21
13.418029
 31
0.0
  0
LINE
  5
A1E
  8
0
 10
27.013423
 20
13.418029
 30
0.0
 11
27.013423
 21
12.168029
 31
0.0
  0
LINE
  5
A1F
  8
0
 10
26.767835
 20
12.168029
 30
0.0
 11
26.767835
 21
13.418029
 31
0.0
  0
LINE
  5
A20
  8
0
 10
26.580835
 20
13.418029
 30
0.0
 11
26.580835
 21
12.168029
 31
0.0
  0
LINE
  5
A21
  8
0
 10
26.335247
 20
12.168029
 30
0.0
 11
26.335247
 21
13.418029
 31
0.0
  0
LINE
  5
A22
  8
0
 10
26.148247
 20
13.418029
 30
0.0
 11
26.148247
 21
12.168029
 31
0.0
  0
LINE
  5
A23
  8
0
 10
25.902658
 20
12.168029
 30
0.0
 11
25.902658
 21
13.418029
 31
0.0
  0
LINE
  5
A24
  8
0
 10
25.715658
 20
13.418029
 30
0.0
 11
25.715658
 21
12.168029
 31
0.0
  0
LINE
  5
A25
  8
0
 10
25.47007
 20
12.168029
 30
0.0
 11
25.47007
 21
13.418029
 31
0.0
  0
LINE
  5
A26
  8
0
 10
25.28307
 20
13.418029
 30
0.0
 11
25.28307
 21
12.168029
 31
0.0
  0
LINE
  5
A27
  8
0
 10
28.311188
 20
13.418029
 30
0.0
 11
28.311188
 21
12.168029
 31
0.0
  0
LINE
  5
A28
  8
0
 10
28.0656
 20
12.168029
 30
0.0
 11
28.0656
 21
13.418029
 31
0.0
  0
LINE
  5
A29
  8
0
 10
27.8786
 20
13.418029
 30
0.0
 11
27.8786
 21
12.168029
 31
0.0
  0
LINE
  5
A2B
  8
CENTERLINE
 10
24.909336
 20
11.381943
 30
0.0
 11
24.909336
 21
13.903946
 31
0.0
  0
LINE
  5
A2C
  8
CENTERLINE
  6
CONTINUOUS
 10
25.825631
 20
11.048693
 30
0.0
 11
26.492131
 21
11.048693
 31
0.0
  0
LINE
  5
A2D
  8
CENTERLINE
  6
CONTINUOUS
 10
25.329418
 20
9.418874
 30
0.0
 11
25.995918
 21
9.418874
 31
0.0
  0
LINE
  5
A2E
  8
0
 10
24.479277
 20
9.039759
 30
0.0
 11
24.479277
 21
10.039759
 31
0.0
  0
ARC
  5
A2F
  8
0
 10
24.479277
 20
9.109759
 30
0.0
 40
0.07
 50
180.0
 51
270.0
  0
LINE
  5
A30
  8
0
 10
24.409277
 20
10.539759
 30
0.0
 11
24.479277
 21
10.539759
 31
0.0
  0
LINE
  5
A31
  8
HIDDEN
 10
25.908047
 20
10.039759
 30
0.0
 11
25.908047
 21
9.419759
 31
0.0
  0
LINE
  5
A32
  8
HIDDEN
 10
25.721047
 20
9.419759
 30
0.0
 11
25.721047
 21
10.039759
 31
0.0
  0
LINE
  5
A33
  8
HIDDEN
 10
25.475458
 20
10.039759
 30
0.0
 11
25.475458
 21
9.419759
 31
0.0
  0
LINE
  5
A34
  8
HIDDEN
 10
25.288458
 20
9.419759
 30
0.0
 11
25.288458
 21
10.039759
 31
0.0
  0
LINE
  5
A35
  8
HIDDEN
 10
25.475458
 20
9.419759
 30
0.0
 11
25.288458
 21
9.419759
 31
0.0
  0
LINE
  5
A36
  8
CENTERLINE
  6
CONTINUOUS
 10
25.662668
 20
9.085624
 30
0.0
 11
25.662668
 21
9.752124
 31
0.0
  0
CIRCLE
  5
A37
  8
0
 10
25.662668
 20
9.418874
 30
0.0
 40
0.1015
  0
LINE
  5
A38
  8
HIDDEN
 10
25.908047
 20
9.419759
 30
0.0
 11
25.721047
 21
9.419759
 31
0.0
  0
LINE
  5
A39
  8
0
 10
25.475458
 20
10.669759
 30
0.0
 11
25.288458
 21
10.669759
 31
0.0
  0
LINE
  5
A3A
  8
0
 10
25.288458
 20
10.669759
 30
0.0
 11
25.288458
 21
10.039759
 31
0.0
  0
LINE
  5
A3B
  8
0
 10
25.721047
 20
10.669759
 30
0.0
 11
25.721047
 21
10.039759
 31
0.0
  0
LINE
  5
A3C
  8
0
 10
25.908047
 20
10.039759
 30
0.0
 11
25.908047
 21
10.669759
 31
0.0
  0
LINE
  5
A3D
  8
0
 10
25.475458
 20
10.039759
 30
0.0
 11
25.475458
 21
10.669759
 31
0.0
  0
LINE
  5
A3E
  8
0
 10
25.908047
 20
10.669759
 30
0.0
 11
25.721047
 21
10.669759
 31
0.0
  0
LINE
  5
A3F
  8
CENTERLINE
  6
CONTINUOUS
 10
24.576086
 20
11.048693
 30
0.0
 11
25.242586
 21
11.048693
 31
0.0
  0
TEXT
  5
A40
  8
DIMENSION
 10
24.964772
 20
11.115694
 30
0.0
 40
0.2
  1
"A"
 41
0.8
  0
LINE
  5
A41
  8
CENTERLINE
  6
CONTINUOUS
 10
24.909336
 20
10.715443
 30
0.0
 11
24.909336
 21
11.381943
 31
0.0
  0
CIRCLE
  5
A42
  8
0
  6
CONTINUOUS
 10
24.909336
 20
11.048693
 30
0.0
 40
0.125
  0
LINE
  5
A43
  8
0
 10
25.28307
 20
12.168029
 30
0.0
 11
25.47007
 21
12.168029
 31
0.0
  0
LINE
  5
A44
  8
0
 10
25.715658
 20
12.168029
 30
0.0
 11
25.902658
 21
12.168029
 31
0.0
  0
LINE
  5
A45
  8
HIDDEN
 10
27.205812
 20
10.039759
 30
0.0
 11
27.205812
 21
9.419759
 31
0.0
  0
LINE
  5
A46
  8
HIDDEN
 10
27.018812
 20
9.419759
 30
0.0
 11
27.018812
 21
10.039759
 31
0.0
  0
LINE
  5
A47
  8
HIDDEN
 10
26.153635
 20
9.419759
 30
0.0
 11
26.153635
 21
10.039759
 31
0.0
  0
LINE
  5
A48
  8
HIDDEN
 10
26.773223
 20
10.039759
 30
0.0
 11
26.773223
 21
9.419759
 31
0.0
  0
LINE
  5
A49
  8
HIDDEN
 10
26.586223
 20
9.419759
 30
0.0
 11
26.586223
 21
10.039759
 31
0.0
  0
LINE
  5
A4A
  8
HIDDEN
 10
26.340635
 20
10.039759
 30
0.0
 11
26.340635
 21
9.419759
 31
0.0
  0
LINE
  5
A4B
  8
HIDDEN
 10
26.773223
 20
9.419759
 30
0.0
 11
26.586223
 21
9.419759
 31
0.0
  0
LINE
  5
A4C
  8
HIDDEN
 10
26.340635
 20
9.419759
 30
0.0
 11
26.153635
 21
9.419759
 31
0.0
  0
LINE
  5
A4D
  8
HIDDEN
 10
27.205812
 20
9.419759
 30
0.0
 11
27.018812
 21
9.419759
 31
0.0
  0
LINE
  5
A4E
  8
0
 10
26.773223
 20
10.669759
 30
0.0
 11
26.586223
 21
10.669759
 31
0.0
  0
LINE
  5
A4F
  8
0
 10
26.340635
 20
10.039759
 30
0.0
 11
26.340635
 21
10.669759
 31
0.0
  0
LINE
  5
A50
  8
0
 10
26.586223
 20
10.669759
 30
0.0
 11
26.586223
 21
10.039759
 31
0.0
  0
LINE
  5
A51
  8
0
 10
26.153635
 20
10.669759
 30
0.0
 11
26.153635
 21
10.039759
 31
0.0
  0
LINE
  5
A52
  8
0
 10
26.340635
 20
10.669759
 30
0.0
 11
26.153635
 21
10.669759
 31
0.0
  0
LINE
  5
A53
  8
0
 10
27.018812
 20
10.669759
 30
0.0
 11
27.018812
 21
10.039759
 31
0.0
  0
LINE
  5
A54
  8
0
 10
27.205812
 20
10.039759
 30
0.0
 11
27.205812
 21
10.669759
 31
0.0
  0
LINE
  5
A55
  8
0
 10
26.773223
 20
10.039759
 30
0.0
 11
26.773223
 21
10.669759
 31
0.0
  0
LINE
  5
A56
  8
0
 10
27.205812
 20
10.669759
 30
0.0
 11
27.018812
 21
10.669759
 31
0.0
  0
LINE
  5
A57
  8
HIDDEN
 10
28.316577
 20
9.419759
 30
0.0
 11
28.316577
 21
10.039759
 31
0.0
  0
LINE
  5
A58
  8
HIDDEN
 10
27.4514
 20
9.419759
 30
0.0
 11
27.4514
 21
10.039759
 31
0.0
  0
LINE
  5
A59
  8
HIDDEN
 10
28.070988
 20
10.039759
 30
0.0
 11
28.070988
 21
9.419759
 31
0.0
  0
LINE
  5
A5A
  8
HIDDEN
 10
27.883988
 20
9.419759
 30
0.0
 11
27.883988
 21
10.039759
 31
0.0
  0
LINE
  5
A5B
  8
HIDDEN
 10
27.6384
 20
10.039759
 30
0.0
 11
27.6384
 21
9.419759
 31
0.0
  0
LINE
  5
A5C
  8
HIDDEN
 10
27.6384
 20
9.419759
 30
0.0
 11
27.4514
 21
9.419759
 31
0.0
  0
LINE
  5
A5D
  8
HIDDEN
 10
28.070988
 20
9.419759
 30
0.0
 11
27.883988
 21
9.419759
 31
0.0
  0
LINE
  5
A5E
  8
0
 10
27.6384
 20
10.039759
 30
0.0
 11
27.6384
 21
10.669759
 31
0.0
  0
LINE
  5
A5F
  8
0
 10
27.4514
 20
10.669759
 30
0.0
 11
27.4514
 21
10.039759
 31
0.0
  0
LINE
  5
A60
  8
0
 10
27.6384
 20
10.669759
 30
0.0
 11
27.4514
 21
10.669759
 31
0.0
  0
LINE
  5
A61
  8
0
 10
28.316577
 20
10.669759
 30
0.0
 11
28.316577
 21
10.039759
 31
0.0
  0
LINE
  5
A62
  8
0
 10
27.883988
 20
10.669759
 30
0.0
 11
27.883988
 21
10.039759
 31
0.0
  0
LINE
  5
A63
  8
0
 10
28.070988
 20
10.039759
 30
0.0
 11
28.070988
 21
10.669759
 31
0.0
  0
LINE
  5
A64
  8
0
 10
28.070988
 20
10.669759
 30
0.0
 11
27.883988
 21
10.669759
 31
0.0
  0
LINE
  5
A65
  8
CENTERLINE
  6
CONTINUOUS
 10
26.158881
 20
10.715443
 30
0.0
 11
26.158881
 21
11.381943
 31
0.0
  0
CIRCLE
  5
A66
  8
0
 10
26.158881
 20
11.048693
 30
0.0
 40
0.109
  0
LINE
  5
A67
  8
0
 10
26.580835
 20
12.168029
 30
0.0
 11
26.767835
 21
12.168029
 31
0.0
  0
LINE
  5
A68
  8
0
 10
26.148247
 20
12.168029
 30
0.0
 11
26.335247
 21
12.168029
 31
0.0
  0
LINE
  5
A69
  8
0
 10
27.013423
 20
12.168029
 30
0.0
 11
27.200423
 21
12.168029
 31
0.0
  0
LINE
  5
A6A
  8
0
 10
27.446012
 20
12.168029
 30
0.0
 11
27.633012
 21
12.168029
 31
0.0
  0
LINE
  5
A6B
  8
0
 10
27.8786
 20
12.168029
 30
0.0
 11
28.0656
 21
12.168029
 31
0.0
  0
LINE
  5
A6C
  8
CENTERLINE
  6
CONTINUOUS
 10
25.825631
 20
14.549149
 30
0.0
 11
26.492131
 21
14.549149
 31
0.0
  0
LINE
  5
A6E
  8
0
 10
25.034336
 20
14.549149
 30
0.0
 11
25.034336
 21
14.401608
 31
0.0
  0
LINE
  5
A6F
  8
0
 10
24.784336
 20
14.549149
 30
0.0
 11
24.784336
 21
14.401608
 31
0.0
  0
LINE
  5
A70
  8
CENTERLINE
  6
CONTINUOUS
 10
24.909336
 20
13.903946
 30
0.0
 11
24.909336
 21
14.570446
 31
0.0
  0
LINE
  5
A71
  8
CENTERLINE
  6
CONTINUOUS
 10
24.909336
 20
14.215899
 30
0.0
 11
24.909336
 21
14.882399
 31
0.0
  0
LINE
  5
A72
  8
CENTERLINE
  6
CONTINUOUS
 10
24.576086
 20
14.237196
 30
0.0
 11
25.242586
 21
14.237196
 31
0.0
  0
LINE
  5
A73
  8
0
 10
25.47007
 20
13.418029
 30
0.0
 11
25.28307
 21
13.418029
 31
0.0
  0
LINE
  5
A74
  8
0
 10
25.902658
 20
13.418029
 30
0.0
 11
25.715658
 21
13.418029
 31
0.0
  0
ARC
  5
A75
  8
0
 10
24.909336
 20
14.237196
 30
0.0
 40
0.1875
 50
138.372104
 51
41.627896
  0
ARC
  5
A76
  8
0
 10
24.724336
 20
14.401608
 30
0.0
 40
0.06
 50
318.372104
 51
0.0
  0
ARC
  5
A77
  8
0
 10
25.094336
 20
14.401608
 30
0.0
 40
0.06
 50
180.0
 51
221.627896
  0
LINE
  5
A78
  8
CENTERLINE
  6
CONTINUOUS
 10
24.576086
 20
14.549149
 30
0.0
 11
25.242586
 21
14.549149
 31
0.0
  0
LINE
  5
A79
  8
0
 10
24.479277
 20
15.54431
 30
0.0
 11
24.479277
 21
15.47431
 31
0.0
  0
LINE
  5
A7A
  8
0
 10
24.479277
 20
15.47431
 30
0.0
 11
24.409277
 21
15.47431
 31
0.0
  0
ARC
  5
A7B
  8
0
 10
24.909336
 20
14.549149
 30
0.0
 40
0.125
 50
0.0
 51
180.0
  0
LINE
  5
A7C
  8
CENTERLINE
  6
CONTINUOUS
 10
26.158881
 20
14.215899
 30
0.0
 11
26.158881
 21
14.882399
 31
0.0
  0
LINE
  5
A7D
  8
0
 10
26.767835
 20
13.418029
 30
0.0
 11
26.580835
 21
13.418029
 31
0.0
  0
LINE
  5
A7E
  8
0
 10
26.335247
 20
13.418029
 30
0.0
 11
26.148247
 21
13.418029
 31
0.0
  0
LINE
  5
A7F
  8
0
 10
27.200423
 20
13.418029
 30
0.0
 11
27.013423
 21
13.418029
 31
0.0
  0
LINE
  5
A80
  8
0
 10
27.633012
 20
13.418029
 30
0.0
 11
27.446012
 21
13.418029
 31
0.0
  0
LINE
  5
A81
  8
0
 10
28.0656
 20
13.418029
 30
0.0
 11
27.8786
 21
13.418029
 31
0.0
  0
CIRCLE
  5
A82
  8
0
 10
26.158881
 20
14.549149
 30
0.0
 40
0.109
  0
LINE
  5
A83
  8
0
 10
32.407485
 20
9.109759
 30
0.0
 11
32.407485
 21
15.47431
 31
0.0
  0
LINE
  5
A84
  8
0
 10
32.337485
 20
9.192995
 30
0.0
 11
32.337485
 21
15.47431
 31
0.0
  0
LINE
  5
A85
  8
0
 10
30.041542
 20
13.418029
 30
0.0
 11
30.041542
 21
12.168029
 31
0.0
  0
LINE
  5
A86
  8
0
 10
30.228542
 20
12.168029
 30
0.0
 11
30.228542
 21
13.418029
 31
0.0
  0
LINE
  5
A87
  8
0
 10
30.47413
 20
13.418029
 30
0.0
 11
30.47413
 21
12.168029
 31
0.0
  0
LINE
  5
A88
  8
0
 10
30.66113
 20
12.168029
 30
0.0
 11
30.66113
 21
13.418029
 31
0.0
  0
LINE
  5
A89
  8
0
 10
30.906718
 20
13.418029
 30
0.0
 11
30.906718
 21
12.168029
 31
0.0
  0
LINE
  5
A8A
  8
0
 10
31.093718
 20
12.168029
 30
0.0
 11
31.093718
 21
13.418029
 31
0.0
  0
LINE
  5
A8B
  8
0
 10
31.339307
 20
13.418029
 30
0.0
 11
31.339307
 21
12.168029
 31
0.0
  0
LINE
  5
A8C
  8
0
 10
31.526307
 20
12.168029
 30
0.0
 11
31.526307
 21
13.418029
 31
0.0
  0
LINE
  5
A8D
  8
0
 10
29.795953
 20
12.168029
 30
0.0
 11
29.795953
 21
13.418029
 31
0.0
  0
LINE
  5
A8E
  8
0
 10
29.608953
 20
13.418029
 30
0.0
 11
29.608953
 21
12.168029
 31
0.0
  0
LINE
  5
A90
  8
CENTERLINE
 10
31.907425
 20
11.381943
 30
0.0
 11
31.907425
 21
13.903946
 31
0.0
  0
LINE
  5
A91
  8
0
 10
29.363365
 20
12.168029
 30
0.0
 11
29.363365
 21
13.418029
 31
0.0
  0
LINE
  5
A92
  8
0
 10
29.176365
 20
13.418029
 30
0.0
 11
29.176365
 21
12.168029
 31
0.0
  0
LINE
  5
A93
  8
0
 10
28.930777
 20
12.168029
 30
0.0
 11
28.930777
 21
13.418029
 31
0.0
  0
LINE
  5
A94
  8
0
 10
28.743777
 20
13.418029
 30
0.0
 11
28.743777
 21
12.168029
 31
0.0
  0
LINE
  5
A95
  8
0
 10
28.498188
 20
12.168029
 30
0.0
 11
28.498188
 21
13.418029
 31
0.0
  0
LINE
  5
A96
  8
0
 10
30.906718
 20
12.168029
 30
0.0
 11
31.093718
 21
12.168029
 31
0.0
  0
LINE
  5
A97
  8
CENTERLINE
  6
CONTINUOUS
 10
30.329631
 20
11.048693
 30
0.0
 11
30.996131
 21
11.048693
 31
0.0
  0
LINE
  5
A98
  8
0
 10
31.099106
 20
10.669759
 30
0.0
 11
30.912106
 21
10.669759
 31
0.0
  0
LINE
  5
A99
  8
HIDDEN
 10
31.099106
 20
9.419759
 30
0.0
 11
30.912106
 21
9.419759
 31
0.0
  0
LINE
  5
A9A
  8
CENTERLINE
  6
CONTINUOUS
 10
30.834235
 20
9.418874
 30
0.0
 11
31.500735
 21
9.418874
 31
0.0
  0
LINE
  5
A9B
  8
0
 10
29.801342
 20
10.669759
 30
0.0
 11
29.614342
 21
10.669759
 31
0.0
  0
LINE
  5
A9C
  8
HIDDEN
 10
29.801342
 20
9.419759
 30
0.0
 11
29.614342
 21
9.419759
 31
0.0
  0
LINE
  5
A9D
  8
HIDDEN
 10
29.614342
 20
9.419759
 30
0.0
 11
29.614342
 21
10.039759
 31
0.0
  0
LINE
  5
A9E
  8
HIDDEN
 10
28.749165
 20
9.419759
 30
0.0
 11
28.749165
 21
10.039759
 31
0.0
  0
LINE
  5
A9F
  8
HIDDEN
 10
28.503577
 20
10.039759
 30
0.0
 11
28.503577
 21
9.419759
 31
0.0
  0
LINE
  5
AA0
  8
HIDDEN
 10
29.368753
 20
10.039759
 30
0.0
 11
29.368753
 21
9.419759
 31
0.0
  0
LINE
  5
AA1
  8
HIDDEN
 10
29.181753
 20
9.419759
 30
0.0
 11
29.181753
 21
10.039759
 31
0.0
  0
LINE
  5
AA2
  8
HIDDEN
 10
28.936165
 20
10.039759
 30
0.0
 11
28.936165
 21
9.419759
 31
0.0
  0
LINE
  5
AA3
  8
HIDDEN
 10
28.936165
 20
9.419759
 30
0.0
 11
28.749165
 21
9.419759
 31
0.0
  0
LINE
  5
AA4
  8
HIDDEN
 10
29.368753
 20
9.419759
 30
0.0
 11
29.181753
 21
9.419759
 31
0.0
  0
LINE
  5
AA5
  8
0
 10
28.936165
 20
10.039759
 30
0.0
 11
28.936165
 21
10.669759
 31
0.0
  0
LINE
  5
AA6
  8
0
 10
28.503577
 20
10.039759
 30
0.0
 11
28.503577
 21
10.669759
 31
0.0
  0
LINE
  5
AA7
  8
0
 10
28.749165
 20
10.669759
 30
0.0
 11
28.749165
 21
10.039759
 31
0.0
  0
LINE
  5
AA8
  8
0
 10
28.936165
 20
10.669759
 30
0.0
 11
28.749165
 21
10.669759
 31
0.0
  0
LINE
  5
AA9
  8
0
 10
29.614342
 20
10.669759
 30
0.0
 11
29.614342
 21
10.039759
 31
0.0
  0
LINE
  5
AAA
  8
0
 10
29.181753
 20
10.669759
 30
0.0
 11
29.181753
 21
10.039759
 31
0.0
  0
LINE
  5
AAB
  8
0
 10
29.368753
 20
10.039759
 30
0.0
 11
29.368753
 21
10.669759
 31
0.0
  0
LINE
  5
AAC
  8
0
 10
29.368753
 20
10.669759
 30
0.0
 11
29.181753
 21
10.669759
 31
0.0
  0
LINE
  5
AAD
  8
HIDDEN
 10
30.912106
 20
9.419759
 30
0.0
 11
30.912106
 21
10.039759
 31
0.0
  0
LINE
  5
AAE
  8
HIDDEN
 10
30.666518
 20
10.039759
 30
0.0
 11
30.666518
 21
9.419759
 31
0.0
  0
LINE
  5
AAF
  8
HIDDEN
 10
29.801342
 20
10.039759
 30
0.0
 11
29.801342
 21
9.419759
 31
0.0
  0
LINE
  5
AB0
  8
HIDDEN
 10
30.04693
 20
9.419759
 30
0.0
 11
30.04693
 21
10.039759
 31
0.0
  0
LINE
  5
AB1
  8
HIDDEN
 10
30.23393
 20
10.039759
 30
0.0
 11
30.23393
 21
9.419759
 31
0.0
  0
LINE
  5
AB2
  8
HIDDEN
 10
30.479518
 20
9.419759
 30
0.0
 11
30.479518
 21
10.039759
 31
0.0
  0
LINE
  5
AB3
  8
HIDDEN
 10
30.23393
 20
9.419759
 30
0.0
 11
30.04693
 21
9.419759
 31
0.0
  0
LINE
  5
AB4
  8
HIDDEN
 10
30.666518
 20
9.419759
 30
0.0
 11
30.479518
 21
9.419759
 31
0.0
  0
LINE
  5
AB5
  8
0
 10
30.23393
 20
10.039759
 30
0.0
 11
30.23393
 21
10.669759
 31
0.0
  0
LINE
  5
AB6
  8
0
 10
30.04693
 20
10.669759
 30
0.0
 11
30.04693
 21
10.039759
 31
0.0
  0
LINE
  5
AB7
  8
0
 10
29.801342
 20
10.039759
 30
0.0
 11
29.801342
 21
10.669759
 31
0.0
  0
LINE
  5
AB8
  8
0
 10
30.23393
 20
10.669759
 30
0.0
 11
30.04693
 21
10.669759
 31
0.0
  0
LINE
  5
AB9
  8
0
 10
30.912106
 20
10.669759
 30
0.0
 11
30.912106
 21
10.039759
 31
0.0
  0
LINE
  5
ABA
  8
0
 10
30.666518
 20
10.039759
 30
0.0
 11
30.666518
 21
10.669759
 31
0.0
  0
LINE
  5
ABB
  8
0
 10
30.479518
 20
10.669759
 30
0.0
 11
30.479518
 21
10.039759
 31
0.0
  0
LINE
  5
ABC
  8
0
 10
30.666518
 20
10.669759
 30
0.0
 11
30.479518
 21
10.669759
 31
0.0
  0
LINE
  5
ABD
  8
0
 10
29.608953
 20
12.168029
 30
0.0
 11
29.795953
 21
12.168029
 31
0.0
  0
LINE
  5
ABE
  8
0
 10
28.743777
 20
12.168029
 30
0.0
 11
28.930777
 21
12.168029
 31
0.0
  0
LINE
  5
ABF
  8
0
 10
29.176365
 20
12.168029
 30
0.0
 11
29.363365
 21
12.168029
 31
0.0
  0
LINE
  5
AC0
  8
CENTERLINE
  6
CONTINUOUS
 10
30.662881
 20
10.715443
 30
0.0
 11
30.662881
 21
11.381943
 31
0.0
  0
CIRCLE
  5
AC1
  8
0
 10
30.662881
 20
11.048693
 30
0.0
 40
0.109
  0
LINE
  5
AC2
  8
0
 10
30.041542
 20
12.168029
 30
0.0
 11
30.228542
 21
12.168029
 31
0.0
  0
LINE
  5
AC3
  8
0
 10
30.47413
 20
12.168029
 30
0.0
 11
30.66113
 21
12.168029
 31
0.0
  0
LINE
  5
AC4
  8
HIDDEN
 10
31.099106
 20
10.039759
 30
0.0
 11
31.099106
 21
9.419759
 31
0.0
  0
LINE
  5
AC5
  8
HIDDEN
 10
31.531695
 20
10.039759
 30
0.0
 11
31.531695
 21
9.419759
 31
0.0
  0
LINE
  5
AC6
  8
HIDDEN
 10
31.344695
 20
9.419759
 30
0.0
 11
31.344695
 21
10.039759
 31
0.0
  0
LINE
  5
AC7
  8
CENTERLINE
  6
CONTINUOUS
 10
31.167485
 20
9.085624
 30
0.0
 11
31.167485
 21
9.752124
 31
0.0
  0
CIRCLE
  5
AC8
  8
0
 10
31.167485
 20
9.418874
 30
0.0
 40
0.1015
  0
LINE
  5
AC9
  8
HIDDEN
 10
31.531695
 20
9.419759
 30
0.0
 11
31.344695
 21
9.419759
 31
0.0
  0
LINE
  5
ACA
  8
0
 10
31.531695
 20
10.039759
 30
0.0
 11
31.531695
 21
10.669759
 31
0.0
  0
LINE
  5
ACB
  8
0
 10
31.344695
 20
10.669759
 30
0.0
 11
31.344695
 21
10.039759
 31
0.0
  0
LINE
  5
ACC
  8
0
 10
31.099106
 20
10.039759
 30
0.0
 11
31.099106
 21
10.669759
 31
0.0
  0
LINE
  5
ACD
  8
0
 10
31.531695
 20
10.669759
 30
0.0
 11
31.344695
 21
10.669759
 31
0.0
  0
LINE
  5
ACE
  8
0
 10
32.337485
 20
9.039759
 30
0.0
 11
32.337485
 21
10.039759
 31
0.0
  0
ARC
  5
ACF
  8
0
 10
32.337485
 20
9.109759
 30
0.0
 40
0.07
 50
270.0
 51
0.0
  0
LINE
  5
AD0
  8
0
 10
32.337485
 20
10.539759
 30
0.0
 11
32.407485
 21
10.539759
 31
0.0
  0
LINE
  5
AD1
  8
CENTERLINE
  6
CONTINUOUS
 10
31.574175
 20
11.048693
 30
0.0
 11
32.240675
 21
11.048693
 31
0.0
  0
TEXT
  5
AD2
  8
DIMENSION
 10
31.487895
 20
11.115694
 30
0.0
 40
0.2
  1
"A"
 41
0.8
  0
LINE
  5
AD3
  8
CENTERLINE
  6
CONTINUOUS
 10
31.907425
 20
10.715443
 30
0.0
 11
31.907425
 21
11.381943
 31
0.0
  0
CIRCLE
  5
AD4
  8
0
  6
CONTINUOUS
 10
31.907425
 20
11.048693
 30
0.0
 40
0.125
  0
LINE
  5
AD5
  8
0
 10
31.339307
 20
12.168029
 30
0.0
 11
31.526307
 21
12.168029
 31
0.0
  0
LINE
  5
AD6
  8
CENTERLINE
  6
CONTINUOUS
 10
30.329631
 20
14.549149
 30
0.0
 11
30.996131
 21
14.549149
 31
0.0
  0
LINE
  5
AD7
  8
0
 10
31.093718
 20
13.418029
 30
0.0
 11
30.906718
 21
13.418029
 31
0.0
  0
LINE
  5
AD8
  8
CENTERLINE
  6
CONTINUOUS
 10
30.662881
 20
14.215899
 30
0.0
 11
30.662881
 21
14.882399
 31
0.0
  0
LINE
  5
AD9
  8
0
 10
29.795953
 20
13.418029
 30
0.0
 11
29.608953
 21
13.418029
 31
0.0
  0
LINE
  5
ADA
  8
0
 10
28.930777
 20
13.418029
 30
0.0
 11
28.743777
 21
13.418029
 31
0.0
  0
LINE
  5
ADB
  8
0
 10
29.363365
 20
13.418029
 30
0.0
 11
29.176365
 21
13.418029
 31
0.0
  0
LINE
  5
ADC
  8
0
 10
30.228542
 20
13.418029
 30
0.0
 11
30.041542
 21
13.418029
 31
0.0
  0
LINE
  5
ADD
  8
0
 10
30.66113
 20
13.418029
 30
0.0
 11
30.47413
 21
13.418029
 31
0.0
  0
CIRCLE
  5
ADE
  8
0
 10
30.662881
 20
14.549149
 30
0.0
 40
0.109
  0
LINE
  5
ADF
  8
0
 10
32.032425
 20
14.549149
 30
0.0
 11
32.032425
 21
14.401608
 31
0.0
  0
LINE
  5
AE0
  8
CENTERLINE
  6
CONTINUOUS
 10
31.907425
 20
14.215899
 30
0.0
 11
31.907425
 21
14.882399
 31
0.0
  0
LINE
  5
AE1
  8
CENTERLINE
  6
CONTINUOUS
 10
31.907425
 20
13.903946
 30
0.0
 11
31.907425
 21
14.570446
 31
0.0
  0
LINE
  5
AE2
  8
0
 10
31.782425
 20
14.549149
 30
0.0
 11
31.782425
 21
14.401608
 31
0.0
  0
LINE
  5
AE3
  8
CENTERLINE
  6
CONTINUOUS
 10
31.574175
 20
14.237196
 30
0.0
 11
32.240675
 21
14.237196
 31
0.0
  0
LINE
  5
AE4
  8
0
 10
31.526307
 20
13.418029
 30
0.0
 11
31.339307
 21
13.418029
 31
0.0
  0
ARC
  5
AE5
  8
0
 10
31.907425
 20
14.237196
 30
0.0
 40
0.1875
 50
138.372104
 51
41.627896
  0
ARC
  5
AE6
  8
0
 10
31.722425
 20
14.401608
 30
0.0
 40
0.06
 50
318.372104
 51
0.0
  0
ARC
  5
AE7
  8
0
 10
32.092425
 20
14.401608
 30
0.0
 40
0.06
 50
180.0
 51
221.627896
  0
LINE
  5
AE8
  8
CENTERLINE
  6
CONTINUOUS
 10
31.574175
 20
14.549149
 30
0.0
 11
32.240675
 21
14.549149
 31
0.0
  0
ARC
  5
AE9
  8
0
 10
31.907425
 20
14.549149
 30
0.0
 40
0.125
 50
0.0
 51
180.0
  0
LINE
  5
AEA
  8
0
 10
32.337485
 20
15.47431
 30
0.0
 11
32.407485
 21
15.47431
 31
0.0
  0
LINE
  5
AEB
  8
0
 10
32.337485
 20
15.47431
 30
0.0
 11
32.337485
 21
15.54431
 31
0.0
  0
LINE
  5
AEE
  8
0
 10
24.409277
 20
26.071683
 30
0.0
 11
24.409277
 21
20.067132
 31
0.0
  0
LINE
  5
AEF
  8
0
 10
32.407485
 20
20.067132
 30
0.0
 11
32.407485
 21
26.071683
 31
0.0
  0
LINE
  5
AF0
  8
0
 10
32.337485
 20
20.137132
 30
0.0
 11
32.337485
 21
25.571683
 31
0.0
  0
LINE
  5
AF1
  8
0
 10
27.633012
 20
24.56785
 30
0.0
 11
27.633012
 21
25.571683
 31
0.0
  0
LINE
  5
AF2
  8
0
 10
27.446012
 20
25.571683
 30
0.0
 11
27.446012
 21
24.56785
 31
0.0
  0
LINE
  5
AF3
  8
0
 10
27.200423
 20
24.56785
 30
0.0
 11
27.200423
 21
25.571683
 31
0.0
  0
LINE
  5
AF4
  8
0
 10
27.013423
 20
25.571683
 30
0.0
 11
27.013423
 21
24.56785
 31
0.0
  0
LINE
  5
AF5
  8
0
 10
26.767835
 20
24.56785
 30
0.0
 11
26.767835
 21
25.571683
 31
0.0
  0
LINE
  5
AF6
  8
0
 10
26.580835
 20
25.571683
 30
0.0
 11
26.580835
 21
24.56785
 31
0.0
  0
LINE
  5
AF7
  8
0
 10
26.335247
 20
24.56785
 30
0.0
 11
26.335247
 21
25.571683
 31
0.0
  0
LINE
  5
AF8
  8
0
 10
26.148247
 20
25.571683
 30
0.0
 11
26.148247
 21
24.56785
 31
0.0
  0
LINE
  5
AF9
  8
0
 10
25.902658
 20
24.56785
 30
0.0
 11
25.902658
 21
25.571683
 31
0.0
  0
LINE
  5
AFA
  8
0
 10
25.715658
 20
25.571683
 30
0.0
 11
25.715658
 21
24.56785
 31
0.0
  0
LINE
  5
AFB
  8
0
 10
25.47007
 20
24.56785
 30
0.0
 11
25.47007
 21
25.571683
 31
0.0
  0
LINE
  5
AFC
  8
0
 10
25.28307
 20
25.571683
 30
0.0
 11
25.28307
 21
24.56785
 31
0.0
  0
LINE
  5
AFD
  8
0
 10
30.66113
 20
24.56785
 30
0.0
 11
30.66113
 21
25.571683
 31
0.0
  0
LINE
  5
AFE
  8
0
 10
30.47413
 20
25.571683
 30
0.0
 11
30.47413
 21
24.56785
 31
0.0
  0
LINE
  5
AFF
  8
0
 10
30.228542
 20
24.56785
 30
0.0
 11
30.228542
 21
25.571683
 31
0.0
  0
LINE
  5
B00
  8
0
 10
30.041542
 20
25.571683
 30
0.0
 11
30.041542
 21
24.56785
 31
0.0
  0
LINE
  5
B01
  8
0
 10
29.795953
 20
24.56785
 30
0.0
 11
29.795953
 21
25.571683
 31
0.0
  0
LINE
  5
B02
  8
0
 10
29.608953
 20
25.571683
 30
0.0
 11
29.608953
 21
24.56785
 31
0.0
  0
LINE
  5
B03
  8
0
 10
29.363365
 20
24.56785
 30
0.0
 11
29.363365
 21
25.571683
 31
0.0
  0
LINE
  5
B04
  8
0
 10
29.176365
 20
25.571683
 30
0.0
 11
29.176365
 21
24.56785
 31
0.0
  0
LINE
  5
B05
  8
0
 10
28.930777
 20
24.56785
 30
0.0
 11
28.930777
 21
25.571683
 31
0.0
  0
LINE
  5
B06
  8
0
 10
28.743777
 20
25.571683
 30
0.0
 11
28.743777
 21
24.56785
 31
0.0
  0
LINE
  5
B07
  8
0
 10
28.498188
 20
24.56785
 30
0.0
 11
28.498188
 21
25.571683
 31
0.0
  0
LINE
  5
B08
  8
0
 10
28.311188
 20
25.571683
 30
0.0
 11
28.311188
 21
24.56785
 31
0.0
  0
LINE
  5
B09
  8
0
 10
28.0656
 20
24.56785
 30
0.0
 11
28.0656
 21
25.571683
 31
0.0
  0
LINE
  5
B0A
  8
0
 10
27.8786
 20
25.571683
 30
0.0
 11
27.8786
 21
24.56785
 31
0.0
  0
LINE
  5
B0B
  8
0
 10
31.526307
 20
24.56785
 30
0.0
 11
31.526307
 21
25.571683
 31
0.0
  0
LINE
  5
B0C
  8
0
 10
31.339307
 20
25.571683
 30
0.0
 11
31.339307
 21
24.56785
 31
0.0
  0
LINE
  5
B0D
  8
0
 10
31.093718
 20
24.56785
 30
0.0
 11
31.093718
 21
25.571683
 31
0.0
  0
LINE
  5
B0E
  8
0
 10
30.906718
 20
25.571683
 30
0.0
 11
30.906718
 21
24.56785
 31
0.0
  0
LINE
  5
B0F
  8
0
 10
24.479277
 20
25.571683
 30
0.0
 11
24.479277
 21
20.137132
 31
0.0
  0
LINE
  5
B12
  8
0
 10
28.311188
 20
24.56785
 30
0.0
 11
28.498188
 21
24.56785
 31
0.0
  0
LINE
  5
B13
  8
0
 10
24.409277
 20
20.067132
 30
0.0
 11
32.407485
 21
20.067132
 31
0.0
  0
LINE
  5
B14
  8
0
 10
24.479277
 20
20.137132
 30
0.0
 11
32.337485
 21
20.137132
 31
0.0
  0
LINE
  5
B15
  8
0
 10
25.28307
 20
22.335149
 30
0.0
 11
25.28307
 21
21.085149
 31
0.0
  0
LINE
  5
B16
  8
0
 10
25.47007
 20
21.085149
 30
0.0
 11
25.47007
 21
22.335149
 31
0.0
  0
LINE
  5
B17
  8
0
 10
25.715658
 20
22.335149
 30
0.0
 11
25.715658
 21
21.085149
 31
0.0
  0
LINE
  5
B18
  8
0
 10
25.902658
 20
21.085149
 30
0.0
 11
25.902658
 21
22.335149
 31
0.0
  0
LINE
  5
B19
  8
0
 10
26.148247
 20
22.335149
 30
0.0
 11
26.148247
 21
21.085149
 31
0.0
  0
LINE
  5
B1A
  8
0
 10
26.335247
 20
21.085149
 30
0.0
 11
26.335247
 21
22.335149
 31
0.0
  0
LINE
  5
B1B
  8
0
 10
26.580835
 20
22.335149
 30
0.0
 11
26.580835
 21
21.085149
 31
0.0
  0
LINE
  5
B1C
  8
0
 10
26.767835
 20
21.085149
 30
0.0
 11
26.767835
 21
22.335149
 31
0.0
  0
LINE
  5
B1D
  8
CENTERLINE
  6
CONTINUOUS
 10
24.909277
 20
20.483882
 30
0.0
 11
24.909277
 21
21.150382
 31
0.0
  0
LINE
  5
B1E
  8
CENTERLINE
  6
CONTINUOUS
 10
27.405603
 20
21.05575
 30
0.0
 11
27.405603
 21
21.72225
 31
0.0
  0
LINE
  5
B1F
  8
CENTERLINE
  6
CONTINUOUS
 10
24.576027
 20
20.817132
 30
0.0
 11
25.242527
 21
20.817132
 31
0.0
  0
LINE
  5
B20
  8
CENTERLINE
  6
CONTINUOUS
 10
25.652668
 20
19.804843
 30
0.0
 11
25.652668
 21
20.471343
 31
0.0
  0
LINE
  5
B21
  8
0
 10
25.28307
 20
21.085149
 30
0.0
 11
25.47007
 21
21.085149
 31
0.0
  0
CIRCLE
  5
B22
  8
0
 10
24.909277
 20
20.817132
 30
0.0
 40
0.0935
  0
LINE
  5
B23
  8
0
 10
25.715658
 20
21.085149
 30
0.0
 11
25.902658
 21
21.085149
 31
0.0
  0
LINE
  5
B24
  8
0
 10
26.580835
 20
21.085149
 30
0.0
 11
26.767835
 21
21.085149
 31
0.0
  0
LINE
  5
B25
  8
0
 10
26.148247
 20
21.085149
 30
0.0
 11
26.335247
 21
21.085149
 31
0.0
  0
LINE
  5
B27
  8
0
 10
25.902658
 20
22.8265
 30
0.0
 11
25.902658
 21
24.0765
 31
0.0
  0
LINE
  5
B28
  8
0
 10
25.715658
 20
24.0765
 30
0.0
 11
25.715658
 21
22.8265
 31
0.0
  0
LINE
  5
B29
  8
0
 10
25.47007
 20
22.8265
 30
0.0
 11
25.47007
 21
24.0765
 31
0.0
  0
LINE
  5
B2A
  8
0
 10
25.28307
 20
24.0765
 30
0.0
 11
25.28307
 21
22.8265
 31
0.0
  0
LINE
  5
B2B
  8
0
 10
25.28307
 20
22.8265
 30
0.0
 11
25.47007
 21
22.8265
 31
0.0
  0
LINE
  5
B2C
  8
0
 10
25.47007
 20
22.335149
 30
0.0
 11
25.28307
 21
22.335149
 31
0.0
  0
LINE
  5
B2D
  8
0
 10
25.902658
 20
22.335149
 30
0.0
 11
25.715658
 21
22.335149
 31
0.0
  0
LINE
  5
B2E
  8
0
 10
25.715658
 20
22.8265
 30
0.0
 11
25.902658
 21
22.8265
 31
0.0
  0
LINE
  5
B2F
  8
CENTERLINE
  6
CONTINUOUS
 10
24.576027
 20
23.4515
 30
0.0
 11
25.242527
 21
23.4515
 31
0.0
  0
LINE
  5
B30
  8
CENTERLINE
  6
CONTINUOUS
 10
24.909277
 20
23.11825
 30
0.0
 11
24.909277
 21
23.78475
 31
0.0
  0
CIRCLE
  5
B31
  8
0
 10
24.909277
 20
23.4515
 30
0.0
 40
0.105
  0
CIRCLE
  5
B32
  8
0
 10
24.909277
 20
23.4515
 30
0.0
 40
0.125
  0
LINE
  5
B33
  8
0
 10
25.28307
 20
24.56785
 30
0.0
 11
25.47007
 21
24.56785
 31
0.0
  0
LINE
  5
B34
  8
0
 10
25.47007
 20
24.0765
 30
0.0
 11
25.28307
 21
24.0765
 31
0.0
  0
LINE
  5
B35
  8
0
 10
25.902658
 20
24.0765
 30
0.0
 11
25.715658
 21
24.0765
 31
0.0
  0
LINE
  5
B36
  8
0
 10
25.715658
 20
24.56785
 30
0.0
 11
25.902658
 21
24.56785
 31
0.0
  0
LINE
  5
B37
  8
CENTERLINE
 10
27.405603
 20
23.74325
 30
0.0
 11
27.405603
 21
22.65975
 31
0.0
  0
LINE
  5
B38
  8
0
 10
26.767835
 20
22.8265
 30
0.0
 11
26.767835
 21
24.0765
 31
0.0
  0
LINE
  5
B39
  8
0
 10
26.580835
 20
24.0765
 30
0.0
 11
26.580835
 21
22.8265
 31
0.0
  0
LINE
  5
B3A
  8
0
 10
26.335247
 20
22.8265
 30
0.0
 11
26.335247
 21
24.0765
 31
0.0
  0
LINE
  5
B3B
  8
0
 10
26.148247
 20
24.0765
 30
0.0
 11
26.148247
 21
22.8265
 31
0.0
  0
LINE
  5
B3C
  8
CENTERLINE
  6
CONTINUOUS
 10
27.072353
 20
22.3265
 30
0.0
 11
27.738853
 21
22.3265
 31
0.0
  0
LINE
  5
B3D
  8
CENTERLINE
  6
CONTINUOUS
 10
27.072353
 20
21.5765
 30
0.0
 11
27.738853
 21
21.5765
 31
0.0
  0
LINE
  5
B3E
  8
CENTERLINE
  6
CONTINUOUS
 10
27.072353
 20
21.329
 30
0.0
 11
27.738853
 21
21.329
 31
0.0
  0
LINE
  5
B3F
  8
0
 10
26.580835
 20
22.8265
 30
0.0
 11
26.767835
 21
22.8265
 31
0.0
  0
LINE
  5
B40
  8
0
 10
26.767835
 20
22.335149
 30
0.0
 11
26.580835
 21
22.335149
 31
0.0
  0
LINE
  5
B41
  8
0
 10
26.335247
 20
22.335149
 30
0.0
 11
26.148247
 21
22.335149
 31
0.0
  0
LINE
  5
B42
  8
0
 10
26.148247
 20
22.8265
 30
0.0
 11
26.335247
 21
22.8265
 31
0.0
  0
LINE
  5
B43
  8
CENTERLINE
  6
CONTINUOUS
 10
27.405603
 20
21.99325
 30
0.0
 11
27.405603
 21
22.65975
 31
0.0
  0
LINE
  5
B44
  8
CENTERLINE
  6
CONTINUOUS
 10
27.405603
 20
21.18325
 30
0.0
 11
27.405603
 21
21.90975
 31
0.0
  0
ARC
  5
B45
  8
0
 10
27.405603
 20
21.5765
 30
0.0
 40
0.125
 50
0.0
 51
180.0
  0
ARC
  5
B46
  8
0
 10
27.405603
 20
21.329
 30
0.0
 40
0.125
 50
180.0
 51
0.0
  0
LINE
  5
B47
  8
0
 10
27.280603
 20
21.5765
 30
0.0
 11
27.280603
 21
21.329
 31
0.0
  0
LINE
  5
B48
  8
0
 10
27.530603
 20
21.5765
 30
0.0
 11
27.530603
 21
21.329
 31
0.0
  0
CIRCLE
  5
B49
  8
0
 10
27.405603
 20
22.3265
 30
0.0
 40
0.125
  0
LINE
  5
B4A
  8
CENTERLINE
  6
CONTINUOUS
 10
27.072353
 20
24.0765
 30
0.0
 11
27.738853
 21
24.0765
 31
0.0
  0
LINE
  5
B4B
  8
CENTERLINE
  6
CONTINUOUS
 10
27.072353
 20
24.32285
 30
0.0
 11
27.738853
 21
24.32285
 31
0.0
  0
LINE
  5
B4C
  8
0
 10
26.580835
 20
24.56785
 30
0.0
 11
26.767835
 21
24.56785
 31
0.0
  0
LINE
  5
B4D
  8
0
 10
26.767835
 20
24.0765
 30
0.0
 11
26.580835
 21
24.0765
 31
0.0
  0
LINE
  5
B4E
  8
0
 10
26.335247
 20
24.0765
 30
0.0
 11
26.148247
 21
24.0765
 31
0.0
  0
LINE
  5
B4F
  8
0
 10
26.148247
 20
24.56785
 30
0.0
 11
26.335247
 21
24.56785
 31
0.0
  0
LINE
  5
B50
  8
0
 10
27.013423
 20
24.56785
 30
0.0
 11
27.200423
 21
24.56785
 31
0.0
  0
LINE
  5
B51
  8
CENTERLINE
  6
CONTINUOUS
 10
27.405603
 20
23.74325
 30
0.0
 11
27.405603
 21
24.34975
 31
0.0
  0
LINE
  5
B52
  8
CENTERLINE
  6
CONTINUOUS
 10
27.405603
 20
24.0496
 30
0.0
 11
27.405603
 21
24.7161
 31
0.0
  0
ARC
  5
B53
  8
0
 10
27.405603
 20
24.32285
 30
0.0
 40
0.125
 50
0.0
 51
180.0
  0
ARC
  5
B54
  8
0
 10
27.405603
 20
24.0765
 30
0.0
 40
0.125
 50
180.0
 51
0.0
  0
LINE
  5
B55
  8
0
 10
27.280603
 20
24.32285
 30
0.0
 11
27.280603
 21
24.0765
 31
0.0
  0
LINE
  5
B56
  8
0
 10
27.530603
 20
24.0765
 30
0.0
 11
27.530603
 21
24.32285
 31
0.0
  0
LINE
  5
B57
  8
0
 10
27.446012
 20
24.56785
 30
0.0
 11
27.633012
 21
24.56785
 31
0.0
  0
LINE
  5
B58
  8
0
 10
27.8786
 20
24.56785
 30
0.0
 11
28.0656
 21
24.56785
 31
0.0
  0
LINE
  5
B59
  8
0
 10
31.526307
 20
21.085149
 30
0.0
 11
31.526307
 21
22.335149
 31
0.0
  0
LINE
  5
B5A
  8
0
 10
31.339307
 20
22.335149
 30
0.0
 11
31.339307
 21
21.085149
 31
0.0
  0
LINE
  5
B5B
  8
0
 10
31.093718
 20
21.085149
 30
0.0
 11
31.093718
 21
22.335149
 31
0.0
  0
LINE
  5
B5C
  8
0
 10
30.906718
 20
22.335149
 30
0.0
 11
30.906718
 21
21.085149
 31
0.0
  0
LINE
  5
B5D
  8
0
 10
30.66113
 20
21.085149
 30
0.0
 11
30.66113
 21
22.335149
 31
0.0
  0
LINE
  5
B5E
  8
0
 10
30.47413
 20
22.335149
 30
0.0
 11
30.47413
 21
21.085149
 31
0.0
  0
LINE
  5
B5F
  8
0
 10
30.228542
 20
21.085149
 30
0.0
 11
30.228542
 21
22.335149
 31
0.0
  0
LINE
  5
B60
  8
0
 10
30.041542
 20
22.335149
 30
0.0
 11
30.041542
 21
21.085149
 31
0.0
  0
LINE
  5
B61
  8
CENTERLINE
  6
CONTINUOUS
 10
31.907485
 20
20.483882
 30
0.0
 11
31.907485
 21
21.150382
 31
0.0
  0
LINE
  5
B62
  8
CENTERLINE
  6
CONTINUOUS
 10
29.403774
 20
21.05575
 30
0.0
 11
29.403774
 21
21.72225
 31
0.0
  0
LINE
  5
B63
  8
0
 10
30.906718
 20
21.085149
 30
0.0
 11
31.093718
 21
21.085149
 31
0.0
  0
LINE
  5
B64
  8
0
 10
30.041542
 20
21.085149
 30
0.0
 11
30.228542
 21
21.085149
 31
0.0
  0
LINE
  5
B65
  8
0
 10
30.47413
 20
21.085149
 30
0.0
 11
30.66113
 21
21.085149
 31
0.0
  0
LINE
  5
B66
  8
CENTERLINE
  6
CONTINUOUS
 10
31.574235
 20
20.817132
 30
0.0
 11
32.240735
 21
20.817132
 31
0.0
  0
LINE
  5
B67
  8
CENTERLINE
  6
CONTINUOUS
 10
31.157485
 20
19.804843
 30
0.0
 11
31.157485
 21
20.471343
 31
0.0
  0
LINE
  5
B68
  8
0
 10
31.339307
 20
21.085149
 30
0.0
 11
31.526307
 21
21.085149
 31
0.0
  0
CIRCLE
  5
B69
  8
0
 10
31.907485
 20
20.817132
 30
0.0
 40
0.0935
  0
LINE
  5
B6A
  8
0
 10
30.906718
 20
24.56785
 30
0.0
 11
31.093718
 21
24.56785
 31
0.0
  0
LINE
  5
B6B
  8
0
 10
31.093718
 20
24.0765
 30
0.0
 11
30.906718
 21
24.0765
 31
0.0
  0
LINE
  5
B6C
  8
0
 10
30.906718
 20
22.8265
 30
0.0
 11
31.093718
 21
22.8265
 31
0.0
  0
LINE
  5
B6D
  8
0
 10
31.093718
 20
22.335149
 30
0.0
 11
30.906718
 21
22.335149
 31
0.0
  0
LINE
  5
B6E
  8
0
 10
30.041542
 20
24.0765
 30
0.0
 11
30.041542
 21
22.8265
 31
0.0
  0
LINE
  5
B6F
  8
0
 10
30.228542
 20
22.8265
 30
0.0
 11
30.228542
 21
24.0765
 31
0.0
  0
LINE
  5
B70
  8
0
 10
30.47413
 20
24.0765
 30
0.0
 11
30.47413
 21
22.8265
 31
0.0
  0
LINE
  5
B71
  8
0
 10
30.66113
 20
22.8265
 30
0.0
 11
30.66113
 21
24.0765
 31
0.0
  0
LINE
  5
B72
  8
0
 10
30.906718
 20
24.0765
 30
0.0
 11
30.906718
 21
22.8265
 31
0.0
  0
LINE
  5
B73
  8
CENTERLINE
 10
29.403774
 20
22.65975
 30
0.0
 11
29.403774
 21
23.74325
 31
0.0
  0
LINE
  5
B74
  8
CENTERLINE
  6
CONTINUOUS
 10
29.070524
 20
22.3265
 30
0.0
 11
29.737024
 21
22.3265
 31
0.0
  0
LINE
  5
B75
  8
CENTERLINE
  6
CONTINUOUS
 10
29.070524
 20
21.5765
 30
0.0
 11
29.737024
 21
21.5765
 31
0.0
  0
LINE
  5
B76
  8
CENTERLINE
  6
CONTINUOUS
 10
29.070524
 20
21.329
 30
0.0
 11
29.737024
 21
21.329
 31
0.0
  0
LINE
  5
B77
  8
CENTERLINE
  6
CONTINUOUS
 10
29.403774
 20
21.99325
 30
0.0
 11
29.403774
 21
22.65975
 31
0.0
  0
LINE
  5
B78
  8
CENTERLINE
  6
CONTINUOUS
 10
29.403774
 20
21.18325
 30
0.0
 11
29.403774
 21
21.90975
 31
0.0
  0
ARC
  5
B79
  8
0
 10
29.403774
 20
21.5765
 30
0.0
 40
0.125
 50
0.0
 51
180.0
  0
ARC
  5
B7A
  8
0
 10
29.403774
 20
21.329
 30
0.0
 40
0.125
 50
180.0
 51
0.0
  0
LINE
  5
B7B
  8
0
 10
29.278774
 20
21.5765
 30
0.0
 11
29.278774
 21
21.329
 31
0.0
  0
LINE
  5
B7C
  8
0
 10
29.528774
 20
21.5765
 30
0.0
 11
29.528774
 21
21.329
 31
0.0
  0
CIRCLE
  5
B7D
  8
0
 10
29.403774
 20
22.3265
 30
0.0
 40
0.125
  0
LINE
  5
B7E
  8
0
 10
30.228542
 20
22.335149
 30
0.0
 11
30.041542
 21
22.335149
 31
0.0
  0
LINE
  5
B7F
  8
0
 10
30.041542
 20
22.8265
 30
0.0
 11
30.228542
 21
22.8265
 31
0.0
  0
LINE
  5
B80
  8
0
 10
30.66113
 20
22.335149
 30
0.0
 11
30.47413
 21
22.335149
 31
0.0
  0
LINE
  5
B81
  8
0
 10
30.47413
 20
22.8265
 30
0.0
 11
30.66113
 21
22.8265
 31
0.0
  0
LINE
  5
B82
  8
0
 10
29.608953
 20
24.56785
 30
0.0
 11
29.795953
 21
24.56785
 31
0.0
  0
LINE
  5
B83
  8
CENTERLINE
  6
CONTINUOUS
 10
29.070524
 20
24.0765
 30
0.0
 11
29.737024
 21
24.0765
 31
0.0
  0
LINE
  5
B84
  8
CENTERLINE
  6
CONTINUOUS
 10
29.070524
 20
24.32285
 30
0.0
 11
29.737024
 21
24.32285
 31
0.0
  0
LINE
  5
B85
  8
CENTERLINE
  6
CONTINUOUS
 10
29.403774
 20
23.74325
 30
0.0
 11
29.403774
 21
24.34975
 31
0.0
  0
LINE
  5
B86
  8
0
 10
28.743777
 20
24.56785
 30
0.0
 11
28.930777
 21
24.56785
 31
0.0
  0
LINE
  5
B87
  8
CENTERLINE
  6
CONTINUOUS
 10
29.403774
 20
24.0496
 30
0.0
 11
29.403774
 21
24.7161
 31
0.0
  0
ARC
  5
B88
  8
0
 10
29.403774
 20
24.32285
 30
0.0
 40
0.125
 50
0.0
 51
180.0
  0
ARC
  5
B89
  8
0
 10
29.403774
 20
24.0765
 30
0.0
 40
0.125
 50
180.0
 51
0.0
  0
LINE
  5
B8A
  8
0
 10
29.278774
 20
24.32285
 30
0.0
 11
29.278774
 21
24.0765
 31
0.0
  0
LINE
  5
B8B
  8
0
 10
29.528774
 20
24.0765
 30
0.0
 11
29.528774
 21
24.32285
 31
0.0
  0
LINE
  5
B8C
  8
0
 10
29.176365
 20
24.56785
 30
0.0
 11
29.363365
 21
24.56785
 31
0.0
  0
LINE
  5
B8D
  8
0
 10
30.228542
 20
24.0765
 30
0.0
 11
30.041542
 21
24.0765
 31
0.0
  0
LINE
  5
B8E
  8
0
 10
30.041542
 20
24.56785
 30
0.0
 11
30.228542
 21
24.56785
 31
0.0
  0
LINE
  5
B8F
  8
0
 10
30.66113
 20
24.0765
 30
0.0
 11
30.47413
 21
24.0765
 31
0.0
  0
LINE
  5
B90
  8
0
 10
30.47413
 20
24.56785
 30
0.0
 11
30.66113
 21
24.56785
 31
0.0
  0
LINE
  5
B91
  8
0
 10
31.093718
 20
22.8265
 30
0.0
 11
31.093718
 21
24.0765
 31
0.0
  0
LINE
  5
B92
  8
0
 10
31.339307
 20
24.0765
 30
0.0
 11
31.339307
 21
22.8265
 31
0.0
  0
LINE
  5
B93
  8
0
 10
31.526307
 20
22.8265
 30
0.0
 11
31.526307
 21
24.0765
 31
0.0
  0
LINE
  5
B94
  8
0
 10
31.526307
 20
22.335149
 30
0.0
 11
31.339307
 21
22.335149
 31
0.0
  0
LINE
  5
B95
  8
0
 10
31.339307
 20
22.8265
 30
0.0
 11
31.526307
 21
22.8265
 31
0.0
  0
LINE
  5
B96
  8
0
 10
31.526307
 20
24.0765
 30
0.0
 11
31.339307
 21
24.0765
 31
0.0
  0
LINE
  5
B97
  8
0
 10
31.339307
 20
24.56785
 30
0.0
 11
31.526307
 21
24.56785
 31
0.0
  0
LINE
  5
B98
  8
HIDDEN
 10
28.498188
 20
25.81785
 30
0.0
 11
28.311188
 21
25.81785
 31
0.0
  0
LINE
  5
B99
  8
0
 10
24.409277
 20
26.071683
 30
0.0
 11
32.407485
 21
26.071683
 31
0.0
  0
LINE
  5
B9A
  8
HIDDEN
 10
24.479277
 20
26.001683
 30
0.0
 11
32.337485
 21
26.001683
 31
0.0
  0
LINE
  5
B9B
  8
0
 10
24.409277
 20
25.571683
 30
0.0
 11
32.407485
 21
25.571683
 31
0.0
  0
LINE
  5
B9C
  8
CENTERLINE
  6
CONTINUOUS
 10
24.576027
 20
25.321683
 30
0.0
 11
25.242527
 21
25.321683
 31
0.0
  0
LINE
  5
B9D
  8
HIDDEN
 10
24.479277
 20
26.001683
 30
0.0
 11
24.479277
 21
25.571683
 31
0.0
  0
LINE
  5
B9E
  8
HIDDEN
 10
25.715658
 20
25.81785
 30
0.0
 11
25.715658
 21
25.571683
 31
0.0
  0
LINE
  5
B9F
  8
HIDDEN
 10
25.902658
 20
25.571683
 30
0.0
 11
25.902658
 21
25.81785
 31
0.0
  0
LINE
  5
BA0
  8
HIDDEN
 10
25.28307
 20
25.81785
 30
0.0
 11
25.28307
 21
25.571683
 31
0.0
  0
LINE
  5
BA1
  8
HIDDEN
 10
25.47007
 20
25.571683
 30
0.0
 11
25.47007
 21
25.81785
 31
0.0
  0
CIRCLE
  5
BA2
  8
0
 10
24.909277
 20
25.321683
 30
0.0
 40
0.0935
  0
LINE
  5
BA3
  8
CENTERLINE
  6
CONTINUOUS
 10
24.909277
 20
24.988433
 30
0.0
 11
24.909277
 21
25.654933
 31
0.0
  0
LINE
  5
BA4
  8
HIDDEN
 10
25.47007
 20
25.81785
 30
0.0
 11
25.28307
 21
25.81785
 31
0.0
  0
LINE
  5
BA5
  8
HIDDEN
 10
25.902658
 20
25.81785
 30
0.0
 11
25.715658
 21
25.81785
 31
0.0
  0
LINE
  5
BA6
  8
HIDDEN
 10
27.013423
 20
25.81785
 30
0.0
 11
27.013423
 21
25.571683
 31
0.0
  0
LINE
  5
BA7
  8
HIDDEN
 10
27.200423
 20
25.571683
 30
0.0
 11
27.200423
 21
25.81785
 31
0.0
  0
LINE
  5
BA8
  8
HIDDEN
 10
26.148247
 20
25.81785
 30
0.0
 11
26.148247
 21
25.571683
 31
0.0
  0
LINE
  5
BA9
  8
HIDDEN
 10
26.335247
 20
25.571683
 30
0.0
 11
26.335247
 21
25.81785
 31
0.0
  0
LINE
  5
BAA
  8
HIDDEN
 10
26.580835
 20
25.81785
 30
0.0
 11
26.580835
 21
25.571683
 31
0.0
  0
LINE
  5
BAB
  8
HIDDEN
 10
26.767835
 20
25.571683
 30
0.0
 11
26.767835
 21
25.81785
 31
0.0
  0
LINE
  5
BAC
  8
CENTERLINE
  6
CONTINUOUS
 10
26.148881
 20
25.718952
 30
0.0
 11
26.148881
 21
26.385452
 31
0.0
  0
LINE
  5
BAD
  8
HIDDEN
 10
26.767835
 20
25.81785
 30
0.0
 11
26.580835
 21
25.81785
 31
0.0
  0
LINE
  5
BAE
  8
HIDDEN
 10
26.335247
 20
25.81785
 30
0.0
 11
26.148247
 21
25.81785
 31
0.0
  0
LINE
  5
BAF
  8
HIDDEN
 10
27.200423
 20
25.81785
 30
0.0
 11
27.013423
 21
25.81785
 31
0.0
  0
LINE
  5
BB0
  8
HIDDEN
 10
28.311188
 20
25.81785
 30
0.0
 11
28.311188
 21
25.571683
 31
0.0
  0
LINE
  5
BB1
  8
HIDDEN
 10
27.446012
 20
25.81785
 30
0.0
 11
27.446012
 21
25.571683
 31
0.0
  0
LINE
  5
BB2
  8
HIDDEN
 10
27.633012
 20
25.571683
 30
0.0
 11
27.633012
 21
25.81785
 31
0.0
  0
LINE
  5
BB3
  8
HIDDEN
 10
27.8786
 20
25.81785
 30
0.0
 11
27.8786
 21
25.571683
 31
0.0
  0
LINE
  5
BB4
  8
HIDDEN
 10
28.0656
 20
25.571683
 30
0.0
 11
28.0656
 21
25.81785
 31
0.0
  0
LINE
  5
BB5
  8
HIDDEN
 10
27.633012
 20
25.81785
 30
0.0
 11
27.446012
 21
25.81785
 31
0.0
  0
LINE
  5
BB6
  8
HIDDEN
 10
28.0656
 20
25.81785
 30
0.0
 11
27.8786
 21
25.81785
 31
0.0
  0
LINE
  5
BB7
  8
HIDDEN
 10
31.093718
 20
25.81785
 30
0.0
 11
30.906718
 21
25.81785
 31
0.0
  0
LINE
  5
BB8
  8
HIDDEN
 10
29.795953
 20
25.81785
 30
0.0
 11
29.608953
 21
25.81785
 31
0.0
  0
LINE
  5
BB9
  8
HIDDEN
 10
29.608953
 20
25.81785
 30
0.0
 11
29.608953
 21
25.571683
 31
0.0
  0
LINE
  5
BBA
  8
HIDDEN
 10
28.498188
 20
25.571683
 30
0.0
 11
28.498188
 21
25.81785
 31
0.0
  0
LINE
  5
BBB
  8
HIDDEN
 10
28.743777
 20
25.81785
 30
0.0
 11
28.743777
 21
25.571683
 31
0.0
  0
LINE
  5
BBC
  8
HIDDEN
 10
28.930777
 20
25.571683
 30
0.0
 11
28.930777
 21
25.81785
 31
0.0
  0
LINE
  5
BBD
  8
HIDDEN
 10
29.176365
 20
25.81785
 30
0.0
 11
29.176365
 21
25.571683
 31
0.0
  0
LINE
  5
BBE
  8
HIDDEN
 10
29.363365
 20
25.571683
 30
0.0
 11
29.363365
 21
25.81785
 31
0.0
  0
LINE
  5
BBF
  8
HIDDEN
 10
28.930777
 20
25.81785
 30
0.0
 11
28.743777
 21
25.81785
 31
0.0
  0
LINE
  5
BC0
  8
HIDDEN
 10
29.363365
 20
25.81785
 30
0.0
 11
29.176365
 21
25.81785
 31
0.0
  0
LINE
  5
BC1
  8
HIDDEN
 10
30.66113
 20
25.571683
 30
0.0
 11
30.66113
 21
25.81785
 31
0.0
  0
LINE
  5
BC2
  8
HIDDEN
 10
30.906718
 20
25.81785
 30
0.0
 11
30.906718
 21
25.571683
 31
0.0
  0
LINE
  5
BC3
  8
CENTERLINE
  6
CONTINUOUS
 10
30.652881
 20
25.718952
 30
0.0
 11
30.652881
 21
26.385452
 31
0.0
  0
LINE
  5
BC4
  8
HIDDEN
 10
29.795953
 20
25.571683
 30
0.0
 11
29.795953
 21
25.81785
 31
0.0
  0
LINE
  5
BC5
  8
HIDDEN
 10
30.041542
 20
25.81785
 30
0.0
 11
30.041542
 21
25.571683
 31
0.0
  0
LINE
  5
BC6
  8
HIDDEN
 10
30.228542
 20
25.571683
 30
0.0
 11
30.228542
 21
25.81785
 31
0.0
  0
LINE
  5
BC7
  8
HIDDEN
 10
30.47413
 20
25.81785
 30
0.0
 11
30.47413
 21
25.571683
 31
0.0
  0
LINE
  5
BC8
  8
HIDDEN
 10
30.228542
 20
25.81785
 30
0.0
 11
30.041542
 21
25.81785
 31
0.0
  0
LINE
  5
BC9
  8
HIDDEN
 10
30.66113
 20
25.81785
 30
0.0
 11
30.47413
 21
25.81785
 31
0.0
  0
LINE
  5
BCA
  8
CENTERLINE
  6
CONTINUOUS
 10
31.574235
 20
25.321683
 30
0.0
 11
32.240735
 21
25.321683
 31
0.0
  0
LINE
  5
BCB
  8
HIDDEN
 10
31.093718
 20
25.571683
 30
0.0
 11
31.093718
 21
25.81785
 31
0.0
  0
LINE
  5
BCC
  8
HIDDEN
 10
31.339307
 20
25.81785
 30
0.0
 11
31.339307
 21
25.571683
 31
0.0
  0
LINE
  5
BCD
  8
HIDDEN
 10
31.526307
 20
25.571683
 30
0.0
 11
31.526307
 21
25.81785
 31
0.0
  0
LINE
  5
BCE
  8
CENTERLINE
  6
CONTINUOUS
 10
31.907485
 20
24.988433
 30
0.0
 11
31.907485
 21
25.654933
 31
0.0
  0
CIRCLE
  5
BCF
  8
0
 10
31.907485
 20
25.321683
 30
0.0
 40
0.0935
  0
LINE
  5
BD0
  8
HIDDEN
 10
31.526307
 20
25.81785
 30
0.0
 11
31.339307
 21
25.81785
 31
0.0
  0
LINE
  5
BD1
  8
HIDDEN
 10
32.337485
 20
25.571683
 30
0.0
 11
32.337485
 21
26.001683
 31
0.0
  0
LINE
  5
BD3
  8
NOTES
  6
PHANTOM
 10
39.489319
 20
15.54431
 30
0.0
 11
35.461349
 21
15.54431
 31
0.0
  0
LINE
  5
BD4
  8
0
 10
35.531349
 20
10.539759
 30
0.0
 11
39.95359
 21
10.539759
 31
0.0
  0
LINE
  5
BD5
  8
0
 10
35.531349
 20
9.039759
 30
0.0
 11
41.328132
 21
9.039759
 31
0.0
  0
LINE
  5
BD6
  8
HIDDEN
 10
35.531349
 20
9.109759
 30
0.0
 11
41.328132
 21
9.109759
 31
0.0
  0
LINE
  5
BD7
  8
NOTES
  6
PHANTOM
 10
35.461349
 20
15.54431
 30
0.0
 11
35.461349
 21
11.207417
 31
0.0
  0
LINE
  5
BD8
  8
CENTERLINE
  6
CONTINUOUS
 10
35.628099
 20
9.418874
 30
0.0
 11
36.294599
 21
9.418874
 31
0.0
  0
LINE
  5
BD9
  8
0
 10
35.461349
 20
10.039759
 30
0.0
 11
35.461349
 21
9.109759
 31
0.0
  0
LINE
  5
BDA
  8
0
 10
35.531349
 20
10.539759
 30
0.0
 11
35.531349
 21
9.039759
 31
0.0
  0
ARC
  5
BDB
  8
0
 10
35.531349
 20
9.109759
 30
0.0
 40
0.07
 50
180.0
 51
270.0
  0
LINE
  5
BDC
  8
0
 10
35.461349
 20
10.039759
 30
0.0
 11
35.531349
 21
10.039759
 31
0.0
  0
LINE
  5
BDD
  8
CENTERLINE
  6
CONTINUOUS
 10
35.961349
 20
9.085624
 30
0.0
 11
35.961349
 21
9.752124
 31
0.0
  0
CIRCLE
  5
BDE
  8
0
 10
35.961349
 20
9.418874
 30
0.0
 40
0.1015
  0
LINE
  5
BE0
  8
0
 10
41.458132
 20
9.169759
 30
0.0
 11
41.458132
 21
15.47431
 31
0.0
  0
LINE
  5
BE1
  8
HIDDEN
 10
41.388132
 20
9.169759
 30
0.0
 11
41.388132
 21
15.47431
 31
0.0
  0
LINE
  5
BE2
  8
0
 10
39.95359
 20
10.539759
 30
0.0
 11
39.95359
 21
15.47431
 31
0.0
  0
LINE
  5
BE3
  8
0
 10
39.95359
 20
10.539759
 30
0.0
 11
41.328132
 21
9.165217
 31
0.0
  0
LINE
  5
BE4
  8
CENTERLINE
  6
CONTINUOUS
 10
40.128561
 20
9.418874
 30
0.0
 11
40.795061
 21
9.418874
 31
0.0
  0
LINE
  5
BE5
  8
CENTERLINE
  6
CONTINUOUS
 10
40.461811
 20
9.085624
 30
0.0
 11
40.461811
 21
9.752124
 31
0.0
  0
CIRCLE
  5
BE6
  8
0
 10
40.461811
 20
9.418874
 30
0.0
 40
0.0805
  0
ARC
  5
BE7
  8
HIDDEN
 10
41.328132
 20
9.169759
 30
0.0
 40
0.06
 50
270.0
 51
0.0
  0
ARC
  5
BE8
  8
0
  6
CONTINUOUS
 10
41.328132
 20
9.169759
 30
0.0
 40
0.13
 50
270.0
 51
0.0
  0
LINE
  5
BE9
  8
HIDDEN
 10
41.018132
 20
11.130693
 30
0.0
 11
41.388132
 21
11.130693
 31
0.0
  0
LINE
  5
BEA
  8
HIDDEN
 10
41.018132
 20
10.966693
 30
0.0
 11
41.388132
 21
10.966693
 31
0.0
  0
LINE
  5
BEB
  8
HIDDEN
 10
41.018132
 20
10.966693
 30
0.0
 11
41.018132
 21
11.130693
 31
0.0
  0
LINE
  5
BEC
  8
CENTERLINE
  6
CONTINUOUS
 10
40.743331
 20
14.045047
 30
0.0
 11
41.409831
 21
14.045047
 31
0.0
  0
CIRCLE
  5
BED
  8
0
 10
41.076581
 20
14.045047
 30
0.0
 40
0.1015
  0
LINE
  5
BEE
  8
CENTERLINE
  6
CONTINUOUS
 10
41.076581
 20
13.711797
 30
0.0
 11
41.076581
 21
14.378297
 31
0.0
  0
LINE
  5
BEF
  8
0
 10
39.95359
 20
15.47431
 30
0.0
 11
41.458132
 21
15.47431
 31
0.0
  0
LINE
  5
BF0
  8
HIDDEN
 10
41.018132
 20
14.629196
 30
0.0
 11
41.388132
 21
14.629196
 31
0.0
  0
LINE
  5
BF1
  8
HIDDEN
 10
41.018132
 20
14.465196
 30
0.0
 11
41.388132
 21
14.465196
 31
0.0
  0
LINE
  5
BF2
  8
HIDDEN
 10
41.018132
 20
14.465196
 30
0.0
 11
41.018132
 21
14.629196
 31
0.0
  0
LINE
  5
BF3
  8
0
 10
41.388132
 20
15.54431
 30
0.0
 11
40.95359
 21
15.54431
 31
0.0
  0
LINE
  5
BF4
  8
0
 10
41.318132
 20
15.47431
 30
0.0
 11
40.95359
 21
15.47431
 31
0.0
  0
LINE
  5
BF5
  8
0
 10
40.95359
 20
15.54431
 30
0.0
 11
40.95359
 21
15.47431
 31
0.0
  0
ARC
  5
BF6
  8
0
 10
41.388132
 20
15.47431
 30
0.0
 40
0.07
 50
360.0
 51
90.0
  0
LINE
  5
11A9
  8
0
 10
15.935319
 20
9.039759
 30
0.0
 11
19.562645
 21
9.039759
 31
0.0
  0
LINE
  5
11AD
  8
0
 10
19.562645
 20
15.536585
 30
0.0
 11
13.702471
 21
15.536585
 31
0.0
  0
LINE
  5
11AF
  8
HIDDEN
 10
19.562645
 20
15.466585
 30
0.0
 11
13.702471
 21
15.466585
 31
0.0
  0
LINE
  5
11B6
  8
0
 10
6.731071
 20
13.515209
 30
0.0
 11
6.541071
 21
13.515209
 31
0.0
  0
LINE
  5
11B7
  8
0
 10
6.541071
 20
15.265209
 30
0.0
 11
6.731071
 21
15.265209
 31
0.0
  0
LINE
  5
11BA
  8
0
 10
2.127415
 20
9.039759
 30
0.0
 11
10.264727
 21
9.039759
 31
0.0
  0
LINE
  5
11BB
  8
HIDDEN
 10
2.302415
 20
15.466585
 30
0.0
 11
10.089727
 21
15.466585
 31
0.0
  0
LINE
  5
11BC
  8
0
  6
CONTINUOUS
 10
2.302415
 20
15.536585
 30
0.0
 11
10.089727
 21
15.536585
 31
0.0
  0
LINE
  5
11C3
  8
HIDDEN
 10
2.197415
 20
15.361585
 30
0.0
 11
2.197415
 21
9.039759
 31
0.0
  0
LINE
  5
11C4
  8
0
 10
2.127415
 20
15.361585
 30
0.0
 11
2.127415
 21
9.039759
 31
0.0
  0
LINE
  5
11C5
  8
CENTERLINE
 10
3.687415
 20
9.385737
 30
0.0
 11
3.207415
 21
9.385737
 31
0.0
  0
LINE
  5
11C6
  8
CENTERLINE
 10
3.627415
 20
9.385737
 30
0.0
 11
3.267415
 21
9.385737
 31
0.0
  0
LINE
  5
11C7
  8
CENTERLINE
 10
3.447415
 20
9.205737
 30
0.0
 11
3.447415
 21
9.625737
 31
0.0
  0
LINE
  5
11C8
  8
CENTERLINE
 10
3.447415
 20
9.265737
 30
0.0
 11
3.447415
 21
9.565737
 31
0.0
  0
CIRCLE
  5
11C9
  8
0
 10
3.447415
 20
9.385737
 30
0.0
 40
0.0935
  0
LINE
  5
11CA
  8
0
 10
3.901071
 20
13.515209
 30
0.0
 11
3.901071
 21
15.265209
 31
0.0
  0
LINE
  5
11CB
  8
0
 10
4.091071
 20
15.265209
 30
0.0
 11
4.091071
 21
13.515209
 31
0.0
  0
LINE
  5
11CC
  8
0
 10
3.461071
 20
13.515209
 30
0.0
 11
3.461071
 21
15.265209
 31
0.0
  0
LINE
  5
11CD
  8
0
 10
3.651071
 20
15.265209
 30
0.0
 11
3.651071
 21
13.515209
 31
0.0
  0
LINE
  5
11CE
  8
0
 10
3.021071
 20
13.515209
 30
0.0
 11
3.021071
 21
15.265209
 31
0.0
  0
LINE
  5
11CF
  8
0
 10
3.211071
 20
15.265209
 30
0.0
 11
3.211071
 21
13.515209
 31
0.0
  0
LINE
  5
11D0
  8
0
 10
3.651071
 20
13.515209
 30
0.0
 11
3.461071
 21
13.515209
 31
0.0
  0
LINE
  5
11D1
  8
0
 10
3.211071
 20
13.515209
 30
0.0
 11
3.021071
 21
13.515209
 31
0.0
  0
LINE
  5
11D2
  8
0
 10
4.091071
 20
13.515209
 30
0.0
 11
3.901071
 21
13.515209
 31
0.0
  0
LINE
  5
11D3
  8
0
 10
2.127415
 20
15.361585
 30
0.0
 11
2.302415
 21
15.361585
 31
0.0
  0
LINE
  5
11D4
  8
0
 10
2.302415
 20
15.536585
 30
0.0
 11
2.302415
 21
15.361585
 31
0.0
  0
ARC
  5
11D5
  8
0
 10
2.302415
 20
15.361585
 30
0.0
 40
0.105
 50
90.0
 51
180.0
  0
ARC
  5
11D6
  8
0
 10
2.302415
 20
15.361585
 30
0.0
 40
0.175
 50
90.0
 51
180.0
  0
LINE
  5
11D7
  8
0
 10
3.461071
 20
15.265209
 30
0.0
 11
3.651071
 21
15.265209
 31
0.0
  0
LINE
  5
11D8
  8
0
 10
3.021071
 20
15.265209
 30
0.0
 11
3.211071
 21
15.265209
 31
0.0
  0
LINE
  5
11D9
  8
0
 10
3.901071
 20
15.265209
 30
0.0
 11
4.091071
 21
15.265209
 31
0.0
  0
LINE
  5
11DA
  8
0
 10
5.411071
 20
15.265209
 30
0.0
 11
5.411071
 21
13.515209
 31
0.0
  0
LINE
  5
11DB
  8
0
 10
5.221071
 20
13.515209
 30
0.0
 11
5.221071
 21
15.265209
 31
0.0
  0
LINE
  5
11DC
  8
0
 10
5.851071
 20
15.265209
 30
0.0
 11
5.851071
 21
13.515209
 31
0.0
  0
LINE
  5
11DD
  8
0
 10
5.661071
 20
13.515209
 30
0.0
 11
5.661071
 21
15.265209
 31
0.0
  0
LINE
  5
11DE
  8
0
 10
4.531071
 20
15.265209
 30
0.0
 11
4.531071
 21
13.515209
 31
0.0
  0
LINE
  5
11DF
  8
0
 10
4.341071
 20
13.515209
 30
0.0
 11
4.341071
 21
15.265209
 31
0.0
  0
LINE
  5
11E0
  8
0
 10
4.781071
 20
13.515209
 30
0.0
 11
4.781071
 21
15.265209
 31
0.0
  0
LINE
  5
11E1
  8
0
 10
4.971071
 20
15.265209
 30
0.0
 11
4.971071
 21
13.515209
 31
0.0
  0
LINE
  5
11E2
  8
0
 10
6.291071
 20
15.265209
 30
0.0
 11
6.291071
 21
13.515209
 31
0.0
  0
LINE
  5
11E3
  8
0
 10
6.101071
 20
13.515209
 30
0.0
 11
6.101071
 21
15.265209
 31
0.0
  0
LINE
  5
11E4
  8
0
 10
6.541071
 20
13.515209
 30
0.0
 11
6.541071
 21
15.265209
 31
0.0
  0
LINE
  5
11E5
  8
0
 10
4.971071
 20
13.515209
 30
0.0
 11
4.781071
 21
13.515209
 31
0.0
  0
LINE
  5
11E6
  8
0
 10
4.531071
 20
13.515209
 30
0.0
 11
4.341071
 21
13.515209
 31
0.0
  0
LINE
  5
11E7
  8
0
 10
5.411071
 20
13.515209
 30
0.0
 11
5.221071
 21
13.515209
 31
0.0
  0
LINE
  5
11E8
  8
0
 10
5.851071
 20
13.515209
 30
0.0
 11
5.661071
 21
13.515209
 31
0.0
  0
LINE
  5
11E9
  8
0
 10
6.291071
 20
13.515209
 30
0.0
 11
6.101071
 21
13.515209
 31
0.0
  0
LINE
  5
11EA
  8
0
 10
4.781071
 20
15.265209
 30
0.0
 11
4.971071
 21
15.265209
 31
0.0
  0
LINE
  5
11EB
  8
0
 10
4.341071
 20
15.265209
 30
0.0
 11
4.531071
 21
15.265209
 31
0.0
  0
LINE
  5
11EC
  8
0
 10
5.221071
 20
15.265209
 30
0.0
 11
5.411071
 21
15.265209
 31
0.0
  0
LINE
  5
11ED
  8
0
 10
5.661071
 20
15.265209
 30
0.0
 11
5.851071
 21
15.265209
 31
0.0
  0
LINE
  5
11EE
  8
0
 10
6.101071
 20
15.265209
 30
0.0
 11
6.291071
 21
15.265209
 31
0.0
  0
LINE
  5
11F6
  8
HIDDEN
 10
10.194727
 20
15.361585
 30
0.0
 11
10.194727
 21
9.039759
 31
0.0
  0
LINE
  5
11F7
  8
0
 10
10.264727
 20
15.361585
 30
0.0
 11
10.264727
 21
9.039759
 31
0.0
  0
LINE
  5
11F8
  8
CENTERLINE
 10
8.944727
 20
9.205737
 30
0.0
 11
8.944727
 21
9.625737
 31
0.0
  0
CIRCLE
  5
11F9
  8
0
 10
8.944727
 20
9.385737
 30
0.0
 40
0.0935
  0
LINE
  5
11FA
  8
CENTERLINE
 10
8.764727
 20
9.385737
 30
0.0
 11
9.124727
 21
9.385737
 31
0.0
  0
LINE
  5
11FB
  8
CENTERLINE
 10
8.704727
 20
9.385737
 30
0.0
 11
9.184727
 21
9.385737
 31
0.0
  0
LINE
  5
11FC
  8
CENTERLINE
 10
8.944727
 20
9.265737
 30
0.0
 11
8.944727
 21
9.565737
 31
0.0
  0
LINE
  5
11FD
  8
0
 10
9.371071
 20
15.265209
 30
0.0
 11
9.181071
 21
15.265209
 31
0.0
  0
LINE
  5
11FE
  8
0
 10
9.181071
 20
13.515209
 30
0.0
 11
9.371071
 21
13.515209
 31
0.0
  0
LINE
  5
11FF
  8
0
 10
7.611071
 20
15.265209
 30
0.0
 11
7.611071
 21
13.515209
 31
0.0
  0
LINE
  5
1200
  8
0
 10
8.051071
 20
15.265209
 30
0.0
 11
8.051071
 21
13.515209
 31
0.0
  0
LINE
  5
1201
  8
0
 10
7.861071
 20
13.515209
 30
0.0
 11
7.861071
 21
15.265209
 31
0.0
  0
LINE
  5
1202
  8
0
 10
6.731071
 20
15.265209
 30
0.0
 11
6.731071
 21
13.515209
 31
0.0
  0
LINE
  5
1203
  8
0
 10
7.171071
 20
15.265209
 30
0.0
 11
7.171071
 21
13.515209
 31
0.0
  0
LINE
  5
1204
  8
0
 10
6.981071
 20
13.515209
 30
0.0
 11
6.981071
 21
15.265209
 31
0.0
  0
LINE
  5
1205
  8
0
 10
7.421071
 20
13.515209
 30
0.0
 11
7.421071
 21
15.265209
 31
0.0
  0
LINE
  5
1206
  8
0
 10
9.181071
 20
15.265209
 30
0.0
 11
9.181071
 21
13.515209
 31
0.0
  0
LINE
  5
1207
  8
0
 10
8.741071
 20
15.265209
 30
0.0
 11
8.741071
 21
13.515209
 31
0.0
  0
LINE
  5
1208
  8
0
 10
8.931071
 20
13.515209
 30
0.0
 11
8.931071
 21
15.265209
 31
0.0
  0
LINE
  5
1209
  8
0
 10
8.301071
 20
15.265209
 30
0.0
 11
8.301071
 21
13.515209
 31
0.0
  0
LINE
  5
120A
  8
0
 10
8.491071
 20
13.515209
 30
0.0
 11
8.491071
 21
15.265209
 31
0.0
  0
LINE
  5
120B
  8
0
 10
8.051071
 20
13.515209
 30
0.0
 11
7.861071
 21
13.515209
 31
0.0
  0
LINE
  5
120C
  8
0
 10
7.171071
 20
13.515209
 30
0.0
 11
6.981071
 21
13.515209
 31
0.0
  0
LINE
  5
120D
  8
0
 10
7.611071
 20
13.515209
 30
0.0
 11
7.421071
 21
13.515209
 31
0.0
  0
LINE
  5
120E
  8
0
 10
8.301071
 20
13.515209
 30
0.0
 11
8.491071
 21
13.515209
 31
0.0
  0
LINE
  5
120F
  8
0
 10
8.741071
 20
13.515209
 30
0.0
 11
8.931071
 21
13.515209
 31
0.0
  0
LINE
  5
1210
  8
0
 10
7.861071
 20
15.265209
 30
0.0
 11
8.051071
 21
15.265209
 31
0.0
  0
LINE
  5
1211
  8
0
 10
6.981071
 20
15.265209
 30
0.0
 11
7.171071
 21
15.265209
 31
0.0
  0
LINE
  5
1212
  8
0
 10
7.421071
 20
15.265209
 30
0.0
 11
7.611071
 21
15.265209
 31
0.0
  0
LINE
  5
1213
  8
0
 10
8.491071
 20
15.265209
 30
0.0
 11
8.301071
 21
15.265209
 31
0.0
  0
LINE
  5
1214
  8
0
 10
8.931071
 20
15.265209
 30
0.0
 11
8.741071
 21
15.265209
 31
0.0
  0
LINE
  5
1216
  8
0
 10
9.371071
 20
13.515209
 30
0.0
 11
9.371071
 21
15.265209
 31
0.0
  0
LINE
  5
1217
  8
0
 10
10.264727
 20
15.361585
 30
0.0
 11
10.089727
 21
15.361585
 31
0.0
  0
ARC
  5
1218
  8
0
 10
10.089727
 20
15.361585
 30
0.0
 40
0.105
 50
0.0
 51
90.0
  0
ARC
  5
1219
  8
0
 10
10.089727
 20
15.361585
 30
0.0
 40
0.175
 50
0.0
 51
90.0
  0
LINE
  5
121A
  8
0
 10
10.089727
 20
15.536585
 30
0.0
 11
10.089727
 21
15.361585
 31
0.0
  0
LINE
  5
121B
  8
0
 10
14.624063
 20
12.715393
 30
0.0
 11
14.624063
 21
10.965393
 31
0.0
  0
LINE
  5
121C
  8
0
 10
14.434063
 20
10.965393
 30
0.0
 11
14.434063
 21
12.715393
 31
0.0
  0
LINE
  5
121D
  8
0
 10
13.994063
 20
10.965393
 30
0.0
 11
13.994063
 21
12.715393
 31
0.0
  0
LINE
  5
121E
  8
0
 10
14.184063
 20
12.715393
 30
0.0
 11
14.184063
 21
10.965393
 31
0.0
  0
LINE
  5
121F
  8
0
 10
15.754063
 20
10.965393
 30
0.0
 11
15.754063
 21
12.715393
 31
0.0
  0
LINE
  5
1220
  8
0
 10
15.944063
 20
12.715393
 30
0.0
 11
15.944063
 21
10.965393
 31
0.0
  0
LINE
  5
1221
  8
0
 10
15.314063
 20
10.965393
 30
0.0
 11
15.314063
 21
12.715393
 31
0.0
  0
LINE
  5
1222
  8
0
 10
15.504063
 20
12.715393
 30
0.0
 11
15.504063
 21
10.965393
 31
0.0
  0
LINE
  5
1223
  8
0
 10
14.874063
 20
10.965393
 30
0.0
 11
14.874063
 21
12.715393
 31
0.0
  0
LINE
  5
1224
  8
0
 10
15.064063
 20
12.715393
 30
0.0
 11
15.064063
 21
10.965393
 31
0.0
  0
LINE
  5
1225
  8
HIDDEN
 10
13.562471
 20
9.039759
 30
0.0
 11
13.562471
 21
15.326585
 31
0.0
  0
LINE
  5
1226
  8
0
 10
13.492471
 20
9.039759
 30
0.0
 11
13.492471
 21
15.326585
 31
0.0
  0
LINE
  5
1227
  8
0
 10
13.492471
 20
9.039759
 30
0.0
 11
14.685319
 21
9.039759
 31
0.0
  0
ARC
  5
1228
  8
0
 10
15.310319
 20
9.713431
 30
0.0
 40
0.625
 50
0.0
 51
180.0
  0
LINE
  5
1229
  8
0
 10
14.685319
 20
9.713431
 30
0.0
 11
14.685319
 21
9.039759
 31
0.0
  0
LINE
  5
122A
  8
CENTERLINE
 10
14.057471
 20
9.153431
 30
0.0
 11
14.057471
 21
9.573431
 31
0.0
  0
CIRCLE
  5
122B
  8
0
 10
14.057471
 20
9.333431
 30
0.0
 40
0.0935
  0
POINT
  5
122C
  8
DEFPOINTS
  6
BYBLOCK
 62
     0
 10
14.057471
 20
9.333431
 30
0.0
  0
POINT
  5
122D
  8
DEFPOINTS
  6
BYBLOCK
 62
     0
 10
14.060458
 20
9.333431
 30
0.0
  0
LINE
  5
122E
  8
CENTERLINE
 10
14.057471
 20
9.213431
 30
0.0
 11
14.057471
 21
9.513431
 31
0.0
  0
LINE
  5
122F
  8
CENTERLINE
 10
15.310319
 20
9.403431
 30
0.0
 11
15.310319
 21
9.953431
 31
0.0
  0
LINE
  5
1230
  8
CENTERLINE
 10
15.310319
 20
9.463431
 30
0.0
 11
15.310319
 21
9.893431
 31
0.0
  0
LINE
  5
1231
  8
0
 10
15.935319
 20
9.713431
 30
0.0
 11
15.935319
 21
9.039759
 31
0.0
  0
LINE
  5
1232
  8
CENTERLINE
 10
15.310319
 20
9.713431
 30
0.0
 11
15.310319
 21
10.524765
 31
0.0
  0
LINE
  5
1233
  8
CENTERLINE
 10
15.070319
 20
9.713431
 30
0.0
 11
15.550319
 21
9.713431
 31
0.0
  0
LINE
  5
1234
  8
0
 10
15.064063
 20
10.965393
 30
0.0
 11
14.874063
 21
10.965393
 31
0.0
  0
LINE
  5
1235
  8
0
 10
14.184063
 20
10.965393
 30
0.0
 11
13.994063
 21
10.965393
 31
0.0
  0
LINE
  5
1236
  8
0
 10
14.624063
 20
10.965393
 30
0.0
 11
14.434063
 21
10.965393
 31
0.0
  0
LINE
  5
1237
  8
0
 10
15.504063
 20
10.965393
 30
0.0
 11
15.314063
 21
10.965393
 31
0.0
  0
LINE
  5
1238
  8
0
 10
15.944063
 20
10.965393
 30
0.0
 11
15.754063
 21
10.965393
 31
0.0
  0
LINE
  5
1239
  8
0
 10
13.492471
 20
15.326585
 30
0.0
 11
13.702471
 21
15.326585
 31
0.0
  0
ARC
  5
123A
  8
0
 10
13.702471
 20
15.326585
 30
0.0
 40
0.21
 50
90.0
 51
180.0
  0
ARC
  5
123B
  8
0
 10
13.702471
 20
15.326585
 30
0.0
 40
0.14
 50
90.0
 51
180.0
  0
LINE
  5
123C
  8
0
 10
15.754063
 20
13.462903
 30
0.0
 11
15.754063
 21
15.212903
 31
0.0
  0
LINE
  5
123D
  8
0
 10
15.944063
 20
15.212903
 30
0.0
 11
15.944063
 21
13.462903
 31
0.0
  0
LINE
  5
123E
  8
0
 10
15.314063
 20
13.462903
 30
0.0
 11
15.314063
 21
15.212903
 31
0.0
  0
LINE
  5
123F
  8
0
 10
15.504063
 20
15.212903
 30
0.0
 11
15.504063
 21
13.462903
 31
0.0
  0
LINE
  5
1240
  8
0
 10
14.874063
 20
13.462903
 30
0.0
 11
14.874063
 21
15.212903
 31
0.0
  0
LINE
  5
1241
  8
0
 10
15.064063
 20
15.212903
 30
0.0
 11
15.064063
 21
13.462903
 31
0.0
  0
LINE
  5
1242
  8
0
 10
14.624063
 20
15.212903
 30
0.0
 11
14.624063
 21
13.462903
 31
0.0
  0
LINE
  5
1243
  8
0
 10
14.434063
 20
13.462903
 30
0.0
 11
14.434063
 21
15.212903
 31
0.0
  0
LINE
  5
1244
  8
0
 10
13.994063
 20
13.462903
 30
0.0
 11
13.994063
 21
15.212903
 31
0.0
  0
LINE
  5
1245
  8
0
 10
14.184063
 20
15.212903
 30
0.0
 11
14.184063
 21
13.462903
 31
0.0
  0
LINE
  5
1246
  8
0
 10
14.874063
 20
12.715393
 30
0.0
 11
15.064063
 21
12.715393
 31
0.0
  0
LINE
  5
1247
  8
0
 10
15.064063
 20
13.462903
 30
0.0
 11
14.874063
 21
13.462903
 31
0.0
  0
LINE
  5
1248
  8
0
 10
13.994063
 20
12.715393
 30
0.0
 11
14.184063
 21
12.715393
 31
0.0
  0
LINE
  5
1249
  8
0
 10
14.434063
 20
12.715393
 30
0.0
 11
14.624063
 21
12.715393
 31
0.0
  0
LINE
  5
124A
  8
0
 10
14.184063
 20
13.462903
 30
0.0
 11
13.994063
 21
13.462903
 31
0.0
  0
LINE
  5
124B
  8
0
 10
14.624063
 20
13.462903
 30
0.0
 11
14.434063
 21
13.462903
 31
0.0
  0
LINE
  5
124C
  8
0
 10
15.314063
 20
12.715393
 30
0.0
 11
15.504063
 21
12.715393
 31
0.0
  0
LINE
  5
124D
  8
0
 10
15.754063
 20
12.715393
 30
0.0
 11
15.944063
 21
12.715393
 31
0.0
  0
LINE
  5
124E
  8
0
 10
15.504063
 20
13.462903
 30
0.0
 11
15.314063
 21
13.462903
 31
0.0
  0
LINE
  5
124F
  8
0
 10
15.944063
 20
13.462903
 30
0.0
 11
15.754063
 21
13.462903
 31
0.0
  0
LINE
  5
1250
  8
0
 10
14.874063
 20
15.212903
 30
0.0
 11
15.064063
 21
15.212903
 31
0.0
  0
LINE
  5
1251
  8
0
 10
13.994063
 20
15.212903
 30
0.0
 11
14.184063
 21
15.212903
 31
0.0
  0
LINE
  5
1252
  8
0
 10
14.434063
 20
15.212903
 30
0.0
 11
14.624063
 21
15.212903
 31
0.0
  0
LINE
  5
1253
  8
0
 10
13.702471
 20
15.536585
 30
0.0
 11
13.702471
 21
15.326585
 31
0.0
  0
LINE
  5
1255
  8
0
 10
15.314063
 20
15.212903
 30
0.0
 11
15.504063
 21
15.212903
 31
0.0
  0
LINE
  5
1256
  8
0
 10
15.754063
 20
15.212903
 30
0.0
 11
15.944063
 21
15.212903
 31
0.0
  0
LINE
  5
1258
  8
0
 10
6.541071
 20
23.376913
 30
0.0
 11
6.731071
 21
23.376913
 31
0.0
  0
LINE
  5
1259
  8
0
 10
6.731071
 20
21.626913
 30
0.0
 11
6.541071
 21
21.626913
 31
0.0
  0
LINE
  5
125A
  8
0
 10
6.541071
 20
25.62927
 30
0.0
 11
6.731071
 21
25.62927
 31
0.0
  0
LINE
  5
125B
  8
0
 10
6.731071
 20
23.87927
 30
0.0
 11
6.541071
 21
23.87927
 31
0.0
  0
LINE
  5
125C
  8
0
 10
2.162415
 20
20.056006
 30
0.0
 11
10.229727
 21
20.056006
 31
0.0
  0
LINE
  5
125D
  8
0
 10
2.092415
 20
26.126006
 30
0.0
 11
10.299727
 21
26.126006
 31
0.0
  0
LINE
  5
125E
  8
HIDDEN
 10
2.162415
 20
20.126006
 30
0.0
 11
10.229727
 21
20.126006
 31
0.0
  0
LINE
  5
125F
  8
0
 10
2.092415
 20
26.126006
 30
0.0
 11
2.092415
 21
20.126006
 31
0.0
  0
LINE
  5
1260
  8
HIDDEN
 10
2.162415
 20
26.126006
 30
0.0
 11
2.162415
 21
20.126006
 31
0.0
  0
LINE
  5
1261
  8
0
 10
3.211071
 20
23.376913
 30
0.0
 11
3.211071
 21
21.626913
 31
0.0
  0
LINE
  5
1262
  8
0
 10
3.021071
 20
21.626913
 30
0.0
 11
3.021071
 21
23.376913
 31
0.0
  0
LINE
  5
1263
  8
0
 10
3.651071
 20
23.376913
 30
0.0
 11
3.651071
 21
21.626913
 31
0.0
  0
LINE
  5
1264
  8
0
 10
3.461071
 20
21.626913
 30
0.0
 11
3.461071
 21
23.376913
 31
0.0
  0
LINE
  5
1265
  8
0
 10
4.091071
 20
23.376913
 30
0.0
 11
4.091071
 21
21.626913
 31
0.0
  0
LINE
  5
1266
  8
0
 10
3.901071
 20
21.626913
 30
0.0
 11
3.901071
 21
23.376913
 31
0.0
  0
LINE
  5
1267
  8
0
 10
6.541071
 20
21.626913
 30
0.0
 11
6.541071
 21
23.376913
 31
0.0
  0
LINE
  5
1268
  8
0
 10
6.101071
 20
21.626913
 30
0.0
 11
6.101071
 21
23.376913
 31
0.0
  0
LINE
  5
1269
  8
0
 10
6.291071
 20
23.376913
 30
0.0
 11
6.291071
 21
21.626913
 31
0.0
  0
LINE
  5
126A
  8
0
 10
4.971071
 20
23.376913
 30
0.0
 11
4.971071
 21
21.626913
 31
0.0
  0
LINE
  5
126B
  8
0
 10
4.781071
 20
21.626913
 30
0.0
 11
4.781071
 21
23.376913
 31
0.0
  0
LINE
  5
126C
  8
0
 10
4.341071
 20
21.626913
 30
0.0
 11
4.341071
 21
23.376913
 31
0.0
  0
LINE
  5
126D
  8
0
 10
4.531071
 20
23.376913
 30
0.0
 11
4.531071
 21
21.626913
 31
0.0
  0
LINE
  5
126E
  8
0
 10
5.661071
 20
21.626913
 30
0.0
 11
5.661071
 21
23.376913
 31
0.0
  0
LINE
  5
126F
  8
0
 10
5.851071
 20
23.376913
 30
0.0
 11
5.851071
 21
21.626913
 31
0.0
  0
LINE
  5
1270
  8
0
 10
5.221071
 20
21.626913
 30
0.0
 11
5.221071
 21
23.376913
 31
0.0
  0
LINE
  5
1271
  8
0
 10
5.411071
 20
23.376913
 30
0.0
 11
5.411071
 21
21.626913
 31
0.0
  0
LINE
  5
1272
  8
0
 10
2.162415
 20
20.056006
 30
0.0
 11
2.162415
 21
20.126006
 31
0.0
  0
LINE
  5
1273
  8
0
 10
2.197415
 20
20.126006
 30
0.0
 11
2.18665
 21
20.126006
 31
0.0
  0
LINE
  5
1274
  8
0
 10
2.162415
 20
20.126006
 30
0.0
 11
2.092415
 21
20.126006
 31
0.0
  0
LINE
  5
1275
  8
0
 10
3.651071
 20
21.626913
 30
0.0
 11
3.461071
 21
21.626913
 31
0.0
  0
LINE
  5
1276
  8
0
 10
3.211071
 20
21.626913
 30
0.0
 11
3.021071
 21
21.626913
 31
0.0
  0
LINE
  5
1277
  8
0
 10
4.091071
 20
21.626913
 30
0.0
 11
3.901071
 21
21.626913
 31
0.0
  0
LINE
  5
1279
  8
0
 10
4.971071
 20
21.626913
 30
0.0
 11
4.781071
 21
21.626913
 31
0.0
  0
LINE
  5
127A
  8
0
 10
4.531071
 20
21.626913
 30
0.0
 11
4.341071
 21
21.626913
 31
0.0
  0
LINE
  5
127B
  8
0
 10
5.411071
 20
21.626913
 30
0.0
 11
5.221071
 21
21.626913
 31
0.0
  0
LINE
  5
127C
  8
0
 10
5.851071
 20
21.626913
 30
0.0
 11
5.661071
 21
21.626913
 31
0.0
  0
LINE
  5
127D
  8
0
 10
6.291071
 20
21.626913
 30
0.0
 11
6.101071
 21
21.626913
 31
0.0
  0
LINE
  5
127E
  8
0
 10
3.461071
 20
23.376913
 30
0.0
 11
3.651071
 21
23.376913
 31
0.0
  0
LINE
  5
127F
  8
0
 10
3.021071
 20
23.376913
 30
0.0
 11
3.211071
 21
23.376913
 31
0.0
  0
LINE
  5
1280
  8
0
 10
3.901071
 20
23.376913
 30
0.0
 11
4.091071
 21
23.376913
 31
0.0
  0
LINE
  5
1281
  8
0
 10
3.211071
 20
25.62927
 30
0.0
 11
3.211071
 21
23.87927
 31
0.0
  0
LINE
  5
1282
  8
0
 10
3.021071
 20
23.87927
 30
0.0
 11
3.021071
 21
25.62927
 31
0.0
  0
LINE
  5
1283
  8
0
 10
3.651071
 20
25.62927
 30
0.0
 11
3.651071
 21
23.87927
 31
0.0
  0
LINE
  5
1284
  8
0
 10
3.461071
 20
23.87927
 30
0.0
 11
3.461071
 21
25.62927
 31
0.0
  0
LINE
  5
1285
  8
0
 10
4.091071
 20
25.62927
 30
0.0
 11
4.091071
 21
23.87927
 31
0.0
  0
LINE
  5
1286
  8
0
 10
3.901071
 20
23.87927
 30
0.0
 11
3.901071
 21
25.62927
 31
0.0
  0
LINE
  5
1287
  8
0
 10
3.651071
 20
23.87927
 30
0.0
 11
3.461071
 21
23.87927
 31
0.0
  0
LINE
  5
1288
  8
0
 10
3.211071
 20
23.87927
 30
0.0
 11
3.021071
 21
23.87927
 31
0.0
  0
LINE
  5
1289
  8
0
 10
4.091071
 20
23.87927
 30
0.0
 11
3.901071
 21
23.87927
 31
0.0
  0
LINE
  5
128A
  8
0
 10
3.461071
 20
25.62927
 30
0.0
 11
3.651071
 21
25.62927
 31
0.0
  0
LINE
  5
128B
  8
0
 10
3.021071
 20
25.62927
 30
0.0
 11
3.211071
 21
25.62927
 31
0.0
  0
LINE
  5
128C
  8
0
 10
3.901071
 20
25.62927
 30
0.0
 11
4.091071
 21
25.62927
 31
0.0
  0
LINE
  5
128D
  8
0
 10
4.781071
 20
23.376913
 30
0.0
 11
4.971071
 21
23.376913
 31
0.0
  0
LINE
  5
128E
  8
0
 10
4.341071
 20
23.376913
 30
0.0
 11
4.531071
 21
23.376913
 31
0.0
  0
LINE
  5
128F
  8
0
 10
5.221071
 20
23.376913
 30
0.0
 11
5.411071
 21
23.376913
 31
0.0
  0
LINE
  5
1290
  8
0
 10
5.661071
 20
23.376913
 30
0.0
 11
5.851071
 21
23.376913
 31
0.0
  0
LINE
  5
1291
  8
0
 10
6.101071
 20
23.376913
 30
0.0
 11
6.291071
 21
23.376913
 31
0.0
  0
LINE
  5
1292
  8
0
 10
5.411071
 20
25.62927
 30
0.0
 11
5.411071
 21
23.87927
 31
0.0
  0
LINE
  5
1293
  8
0
 10
5.221071
 20
23.87927
 30
0.0
 11
5.221071
 21
25.62927
 31
0.0
  0
LINE
  5
1294
  8
0
 10
4.531071
 20
25.62927
 30
0.0
 11
4.531071
 21
23.87927
 31
0.0
  0
LINE
  5
1295
  8
0
 10
4.341071
 20
23.87927
 30
0.0
 11
4.341071
 21
25.62927
 31
0.0
  0
LINE
  5
1296
  8
0
 10
4.781071
 20
23.87927
 30
0.0
 11
4.781071
 21
25.62927
 31
0.0
  0
LINE
  5
1297
  8
0
 10
4.971071
 20
25.62927
 30
0.0
 11
4.971071
 21
23.87927
 31
0.0
  0
LINE
  5
1298
  8
0
 10
4.971071
 20
23.87927
 30
0.0
 11
4.781071
 21
23.87927
 31
0.0
  0
LINE
  5
1299
  8
0
 10
4.531071
 20
23.87927
 30
0.0
 11
4.341071
 21
23.87927
 31
0.0
  0
LINE
  5
129A
  8
0
 10
5.411071
 20
23.87927
 30
0.0
 11
5.221071
 21
23.87927
 31
0.0
  0
LINE
  5
129B
  8
0
 10
4.781071
 20
25.62927
 30
0.0
 11
4.971071
 21
25.62927
 31
0.0
  0
LINE
  5
129C
  8
0
 10
4.341071
 20
25.62927
 30
0.0
 11
4.531071
 21
25.62927
 31
0.0
  0
LINE
  5
129D
  8
0
 10
5.221071
 20
25.62927
 30
0.0
 11
5.411071
 21
25.62927
 31
0.0
  0
LINE
  5
129E
  8
0
 10
5.851071
 20
25.62927
 30
0.0
 11
5.851071
 21
23.87927
 31
0.0
  0
LINE
  5
129F
  8
0
 10
5.661071
 20
23.87927
 30
0.0
 11
5.661071
 21
25.62927
 31
0.0
  0
LINE
  5
12A0
  8
0
 10
6.291071
 20
25.62927
 30
0.0
 11
6.291071
 21
23.87927
 31
0.0
  0
LINE
  5
12A1
  8
0
 10
6.101071
 20
23.87927
 30
0.0
 11
6.101071
 21
25.62927
 31
0.0
  0
LINE
  5
12A2
  8
0
 10
6.541071
 20
23.87927
 30
0.0
 11
6.541071
 21
25.62927
 31
0.0
  0
LINE
  5
12A3
  8
0
 10
5.851071
 20
23.87927
 30
0.0
 11
5.661071
 21
23.87927
 31
0.0
  0
LINE
  5
12A4
  8
0
 10
6.291071
 20
23.87927
 30
0.0
 11
6.101071
 21
23.87927
 31
0.0
  0
LINE
  5
12A5
  8
0
 10
5.661071
 20
25.62927
 30
0.0
 11
5.851071
 21
25.62927
 31
0.0
  0
LINE
  5
12A6
  8
0
 10
6.101071
 20
25.62927
 30
0.0
 11
6.291071
 21
25.62927
 31
0.0
  0
LINE
  5
12AA
  8
0
 10
10.299727
 20
20.126006
 30
0.0
 11
10.299727
 21
26.126006
 31
0.0
  0
LINE
  5
12AB
  8
HIDDEN
 10
10.229727
 20
20.126006
 30
0.0
 11
10.229727
 21
26.126006
 31
0.0
  0
LINE
  5
12AF
  8
0
 10
8.491071
 20
21.626913
 30
0.0
 11
8.491071
 21
23.376913
 31
0.0
  0
LINE
  5
12B0
  8
0
 10
8.301071
 20
23.376913
 30
0.0
 11
8.301071
 21
21.626913
 31
0.0
  0
LINE
  5
12B1
  8
0
 10
8.931071
 20
21.626913
 30
0.0
 11
8.931071
 21
23.376913
 31
0.0
  0
LINE
  5
12B2
  8
0
 10
8.741071
 20
23.376913
 30
0.0
 11
8.741071
 21
21.626913
 31
0.0
  0
LINE
  5
12B3
  8
0
 10
9.371071
 20
21.626913
 30
0.0
 11
9.371071
 21
23.376913
 31
0.0
  0
LINE
  5
12B4
  8
0
 10
9.181071
 20
23.376913
 30
0.0
 11
9.181071
 21
21.626913
 31
0.0
  0
LINE
  5
12B5
  8
0
 10
7.421071
 20
21.626913
 30
0.0
 11
7.421071
 21
23.376913
 31
0.0
  0
LINE
  5
12B6
  8
0
 10
6.981071
 20
21.626913
 30
0.0
 11
6.981071
 21
23.376913
 31
0.0
  0
LINE
  5
12B7
  8
0
 10
7.171071
 20
23.376913
 30
0.0
 11
7.171071
 21
21.626913
 31
0.0
  0
LINE
  5
12B8
  8
0
 10
6.731071
 20
23.376913
 30
0.0
 11
6.731071
 21
21.626913
 31
0.0
  0
LINE
  5
12B9
  8
0
 10
7.861071
 20
21.626913
 30
0.0
 11
7.861071
 21
23.376913
 31
0.0
  0
LINE
  5
12BA
  8
0
 10
8.051071
 20
23.376913
 30
0.0
 11
8.051071
 21
21.626913
 31
0.0
  0
LINE
  5
12BB
  8
0
 10
7.611071
 20
23.376913
 30
0.0
 11
7.611071
 21
21.626913
 31
0.0
  0
LINE
  5
12BC
  8
0
 10
9.181071
 20
21.626913
 30
0.0
 11
9.371071
 21
21.626913
 31
0.0
  0
LINE
  5
12BD
  8
0
 10
8.051071
 20
21.626913
 30
0.0
 11
7.861071
 21
21.626913
 31
0.0
  0
LINE
  5
12BE
  8
0
 10
7.171071
 20
21.626913
 30
0.0
 11
6.981071
 21
21.626913
 31
0.0
  0
LINE
  5
12BF
  8
0
 10
7.611071
 20
21.626913
 30
0.0
 11
7.421071
 21
21.626913
 31
0.0
  0
LINE
  5
12C0
  8
0
 10
8.301071
 20
21.626913
 30
0.0
 11
8.491071
 21
21.626913
 31
0.0
  0
LINE
  5
12C1
  8
0
 10
8.741071
 20
21.626913
 30
0.0
 11
8.931071
 21
21.626913
 31
0.0
  0
LINE
  5
12C2
  8
0
 10
10.229727
 20
20.056006
 30
0.0
 11
10.229727
 21
20.126006
 31
0.0
  0
LINE
  5
12C3
  8
0
 10
10.229727
 20
20.126006
 30
0.0
 11
10.229727
 21
20.126006
 31
0.0
  0
LINE
  5
12C4
  8
0
 10
10.299727
 20
20.126006
 30
0.0
 11
10.229727
 21
20.126006
 31
0.0
  0
LINE
  5
12C5
  8
0
 10
9.371071
 20
23.376913
 30
0.0
 11
9.181071
 21
23.376913
 31
0.0
  0
LINE
  5
12C6
  8
0
 10
9.371071
 20
25.62927
 30
0.0
 11
9.181071
 21
25.62927
 31
0.0
  0
LINE
  5
12C7
  8
0
 10
9.181071
 20
23.87927
 30
0.0
 11
9.371071
 21
23.87927
 31
0.0
  0
LINE
  5
12C8
  8
0
 10
7.861071
 20
23.376913
 30
0.0
 11
8.051071
 21
23.376913
 31
0.0
  0
LINE
  5
12C9
  8
0
 10
6.981071
 20
23.376913
 30
0.0
 11
7.171071
 21
23.376913
 31
0.0
  0
LINE
  5
12CA
  8
0
 10
7.421071
 20
23.376913
 30
0.0
 11
7.611071
 21
23.376913
 31
0.0
  0
LINE
  5
12CB
  8
0
 10
8.491071
 20
23.376913
 30
0.0
 11
8.301071
 21
23.376913
 31
0.0
  0
LINE
  5
12CC
  8
0
 10
8.931071
 20
23.376913
 30
0.0
 11
8.741071
 21
23.376913
 31
0.0
  0
LINE
  5
12CD
  8
0
 10
7.861071
 20
25.62927
 30
0.0
 11
8.051071
 21
25.62927
 31
0.0
  0
LINE
  5
12CE
  8
0
 10
8.051071
 20
23.87927
 30
0.0
 11
7.861071
 21
23.87927
 31
0.0
  0
LINE
  5
12CF
  8
0
 10
7.611071
 20
25.62927
 30
0.0
 11
7.611071
 21
23.87927
 31
0.0
  0
LINE
  5
12D0
  8
0
 10
7.861071
 20
23.87927
 30
0.0
 11
7.861071
 21
25.62927
 31
0.0
  0
LINE
  5
12D1
  8
0
 10
6.731071
 20
25.62927
 30
0.0
 11
6.731071
 21
23.87927
 31
0.0
  0
LINE
  5
12D2
  8
0
 10
7.171071
 20
25.62927
 30
0.0
 11
7.171071
 21
23.87927
 31
0.0
  0
LINE
  5
12D3
  8
0
 10
6.981071
 20
23.87927
 30
0.0
 11
6.981071
 21
25.62927
 31
0.0
  0
LINE
  5
12D4
  8
0
 10
7.421071
 20
23.87927
 30
0.0
 11
7.421071
 21
25.62927
 31
0.0
  0
LINE
  5
12D5
  8
0
 10
7.171071
 20
23.87927
 30
0.0
 11
6.981071
 21
23.87927
 31
0.0
  0
LINE
  5
12D6
  8
0
 10
7.611071
 20
23.87927
 30
0.0
 11
7.421071
 21
23.87927
 31
0.0
  0
LINE
  5
12D7
  8
0
 10
6.981071
 20
25.62927
 30
0.0
 11
7.171071
 21
25.62927
 31
0.0
  0
LINE
  5
12D8
  8
0
 10
7.421071
 20
25.62927
 30
0.0
 11
7.611071
 21
25.62927
 31
0.0
  0
LINE
  5
12D9
  8
0
 10
8.491071
 20
23.87927
 30
0.0
 11
8.491071
 21
25.62927
 31
0.0
  0
LINE
  5
12DA
  8
0
 10
8.301071
 20
25.62927
 30
0.0
 11
8.301071
 21
23.87927
 31
0.0
  0
LINE
  5
12DB
  8
0
 10
8.931071
 20
23.87927
 30
0.0
 11
8.931071
 21
25.62927
 31
0.0
  0
LINE
  5
12DC
  8
0
 10
8.741071
 20
25.62927
 30
0.0
 11
8.741071
 21
23.87927
 31
0.0
  0
LINE
  5
12DD
  8
0
 10
9.181071
 20
25.62927
 30
0.0
 11
9.181071
 21
23.87927
 31
0.0
  0
LINE
  5
12DE
  8
0
 10
8.051071
 20
25.62927
 30
0.0
 11
8.051071
 21
23.87927
 31
0.0
  0
LINE
  5
12DF
  8
0
 10
8.301071
 20
23.87927
 30
0.0
 11
8.491071
 21
23.87927
 31
0.0
  0
LINE
  5
12E0
  8
0
 10
8.741071
 20
23.87927
 30
0.0
 11
8.931071
 21
23.87927
 31
0.0
  0
LINE
  5
12E1
  8
0
 10
8.491071
 20
25.62927
 30
0.0
 11
8.301071
 21
25.62927
 31
0.0
  0
LINE
  5
12E2
  8
0
 10
8.931071
 20
25.62927
 30
0.0
 11
8.741071
 21
25.62927
 31
0.0
  0
LINE
  5
12E3
  8
0
 10
9.371071
 20
23.87927
 30
0.0
 11
9.371071
 21
25.62927
 31
0.0
  0
LINE
  5
1327
  8
0
 10
17.074063
 20
10.965393
 30
0.0
 11
17.074063
 21
12.715393
 31
0.0
  0
LINE
  5
1328
  8
0
 10
16.634063
 20
10.965393
 30
0.0
 11
16.634063
 21
12.715393
 31
0.0
  0
LINE
  5
1329
  8
0
 10
16.824063
 20
12.715393
 30
0.0
 11
16.824063
 21
10.965393
 31
0.0
  0
LINE
  5
132A
  8
0
 10
16.194063
 20
10.965393
 30
0.0
 11
16.194063
 21
12.715393
 31
0.0
  0
LINE
  5
132B
  8
0
 10
16.384063
 20
12.715393
 30
0.0
 11
16.384063
 21
10.965393
 31
0.0
  0
LINE
  5
132C
  8
0
 10
17.514063
 20
10.965393
 30
0.0
 11
17.514063
 21
12.715393
 31
0.0
  0
LINE
  5
132D
  8
0
 10
17.704063
 20
12.715393
 30
0.0
 11
17.704063
 21
10.965393
 31
0.0
  0
LINE
  5
132E
  8
0
 10
17.264063
 20
12.715393
 30
0.0
 11
17.264063
 21
10.965393
 31
0.0
  0
LINE
  5
132F
  8
0
 10
19.562645
 20
9.039759
 30
0.0
 11
19.562645
 21
15.536585
 31
0.0
  0
LINE
  5
1330
  8
CENTERLINE
 10
18.553164
 20
9.153431
 30
0.0
 11
18.553164
 21
9.467756
 31
0.0
  0
CIRCLE
  5
1331
  8
0
 10
18.553164
 20
9.333431
 30
0.0
 40
0.0935
  0
LINE
  5
1332
  8
0
 10
16.824063
 20
10.965393
 30
0.0
 11
16.634063
 21
10.965393
 31
0.0
  0
LINE
  5
1333
  8
0
 10
16.384063
 20
10.965393
 30
0.0
 11
16.194063
 21
10.965393
 31
0.0
  0
LINE
  5
1334
  8
0
 10
17.264063
 20
10.965393
 30
0.0
 11
17.074063
 21
10.965393
 31
0.0
  0
LINE
  5
1335
  8
0
 10
17.704063
 20
10.965393
 30
0.0
 11
17.514063
 21
10.965393
 31
0.0
  0
LINE
  5
1338
  8
0
 10
17.514063
 20
13.462903
 30
0.0
 11
17.514063
 21
15.212903
 31
0.0
  0
LINE
  5
1339
  8
0
 10
17.704063
 20
15.212903
 30
0.0
 11
17.704063
 21
13.462903
 31
0.0
  0
LINE
  5
133A
  8
0
 10
17.074063
 20
13.462903
 30
0.0
 11
17.074063
 21
15.212903
 31
0.0
  0
LINE
  5
133B
  8
0
 10
17.264063
 20
15.212903
 30
0.0
 11
17.264063
 21
13.462903
 31
0.0
  0
LINE
  5
133C
  8
0
 10
16.634063
 20
13.462903
 30
0.0
 11
16.634063
 21
15.212903
 31
0.0
  0
LINE
  5
133D
  8
0
 10
16.824063
 20
15.212903
 30
0.0
 11
16.824063
 21
13.462903
 31
0.0
  0
LINE
  5
133E
  8
0
 10
16.194063
 20
13.462903
 30
0.0
 11
16.194063
 21
15.212903
 31
0.0
  0
LINE
  5
133F
  8
0
 10
16.384063
 20
15.212903
 30
0.0
 11
16.384063
 21
13.462903
 31
0.0
  0
LINE
  5
1340
  8
0
 10
16.634063
 20
12.715393
 30
0.0
 11
16.824063
 21
12.715393
 31
0.0
  0
LINE
  5
1341
  8
0
 10
16.194063
 20
12.715393
 30
0.0
 11
16.384063
 21
12.715393
 31
0.0
  0
LINE
  5
1342
  8
0
 10
17.074063
 20
12.715393
 30
0.0
 11
17.264063
 21
12.715393
 31
0.0
  0
LINE
  5
1343
  8
0
 10
16.824063
 20
13.462903
 30
0.0
 11
16.634063
 21
13.462903
 31
0.0
  0
LINE
  5
1344
  8
0
 10
16.384063
 20
13.462903
 30
0.0
 11
16.194063
 21
13.462903
 31
0.0
  0
LINE
  5
1345
  8
0
 10
17.264063
 20
13.462903
 30
0.0
 11
17.074063
 21
13.462903
 31
0.0
  0
LINE
  5
1346
  8
0
 10
17.514063
 20
12.715393
 30
0.0
 11
17.704063
 21
12.715393
 31
0.0
  0
LINE
  5
1347
  8
0
 10
17.704063
 20
13.462903
 30
0.0
 11
17.514063
 21
13.462903
 31
0.0
  0
LINE
  5
1348
  8
0
 10
16.634063
 20
15.212903
 30
0.0
 11
16.824063
 21
15.212903
 31
0.0
  0
LINE
  5
1349
  8
0
 10
16.194063
 20
15.212903
 30
0.0
 11
16.384063
 21
15.212903
 31
0.0
  0
LINE
  5
134A
  8
0
 10
17.074063
 20
15.212903
 30
0.0
 11
17.264063
 21
15.212903
 31
0.0
  0
LINE
  5
134B
  8
0
 10
17.514063
 20
15.212903
 30
0.0
 11
17.704063
 21
15.212903
 31
0.0
  0
LINE
  5
134D
  8
CENTERLINE
 10
18.949273
 20
13.967692
 30
0.0
 11
19.429273
 21
13.967692
 31
0.0
  0
LINE
  5
134E
  8
CENTERLINE
 10
19.000319
 20
13.967692
 30
0.0
 11
19.360319
 21
13.967692
 31
0.0
  0
LINE
  5
134F
  8
CENTERLINE
 10
19.180319
 20
13.727692
 30
0.0
 11
19.180319
 21
14.207692
 31
0.0
  0
POINT
  5
1350
  8
DEFPOINTS
  6
BYBLOCK
 62
     0
 10
19.19226
 20
13.967692
 30
0.0
  0
CIRCLE
  5
1351
  8
0
 10
19.180319
 20
13.967692
 30
0.0
 40
0.0935
  0
LINE
  5
167D
  8
0
 10
20.66615
 20
5.99985
 30
0.0
 11
20.66615
 21
27.797136
 31
0.0
  0
TEXT
  5
168E
  8
NOTES
 10
34.967856
 20
23.615798
 30
0.0
 40
0.333325
  1
TOTAL ENCLOSURE WEIGHT: 4 LBS.
  7
MASTER
  0
TEXT
  5
18BF
  8
NOTES
  6
PHANTOM
 10
33.198094
 20
7.13435
 30
0.0
 40
0.333325
  1
BASE
  7
MASTER
  0
TEXT
  5
18C0
  8
NOTES
  6
PHANTOM
 10
5.460727
 20
7.2292
 30
0.0
 40
0.333325
  1
COVER
  7
MASTER
  0
LINE
  5
18C1
  8
CENTERLINE
 10
18.322118
 20
9.333431
 30
0.0
 11
18.802118
 21
9.333431
 31
0.0
  0
LINE
  5
18C2
  8
CENTERLINE
 10
13.826425
 20
9.333431
 30
0.0
 11
14.306425
 21
9.333431
 31
0.0
  0
LINE
  5
18D2
  8
NOTES
  6
PHANTOM
 10
5.300901
 20
7.131845
 30
0.0
 11
7.126674
 21
7.131845
 31
0.0
  0
LINE
  5
18D3
  8
NOTES
  6
PHANTOM
 10
33.144818
 20
6.974644
 30
0.0
 11
34.476703
 21
6.974644
 31
0.0
  0
TEXT
  5
18D4
  8
NOTES
  6
PHANTOM
 10
39.503698
 20
18.104967
 30
0.0
 40
0.333325
  1
COVER IN
 41
0.8
  7
MASTER
  0
TEXT
  5
18D5
  8
NOTES
  6
PHANTOM
 10
39.503698
 20
17.565298
 30
0.0
 40
0.333325
  1
PLACE
 41
0.8
  7
MASTER
  0
INSERT
  5
18E2
  8
BORDER
 66
     1
  2
REVISE12
 10
20.66615
 20
1.99995
 30
0.0
 41
2.6666
 42
2.6666
 43
2.6666
  0
ATTRIB
  5
18E3
  8
0
 10
20.749481
 20
2.166613
 30
0.0
 40
0.333325
  1
A
 41
2.25
 72
     5
 11
21.249469
 21
2.166613
 31
0.0
  2
NO
 70
     8
  0
ATTRIB
  5
18E4
  8
0
 10
21.499463
 20
2.166613
 30
0.0
 40
0.333325
  1
REDRAWN -NO REVS.
  2
REV
 70
     8
  0
ATTRIB
  5
18E5
  8
0
 10
28.165963
 20
2.166613
 30
0.0
 40
0.333325
  1
4/4/01
 41
1.016129
 72
     5
 11
29.915919
 21
2.166613
 31
0.0
  2
RDATE
 70
     8
  0
ATTRIB
  5
18E6
  8
0
 10
30.082581
 20
2.166613
 30
0.0
 40
0.333325
  1
RJC
  2
BY
 70
     8
  0
SEQEND
  5
18E7
  8
BORDER
  0
INSERT
  5
18E9
  8
BORDER
 66
     1
  2
REVISE12
 10
20.66615
 20
2.6666
 30
0.0
 41
2.6666
 42
2.6666
 43
2.6666
  0
ATTRIB
  5
18EA
  8
0
 10
20.749481
 20
2.833263
 30
0.0
 40
0.333325
  1

 41
0.9
 72
     5
 11
21.249469
 21
2.833263
 31
0.0
  2
NO
 70
     8
  0
ATTRIB
  5
18EB
  8
0
 10
21.499463
 20
2.833263
 30
0.0
 40
0.333325
  1

  2
REV
 70
     8
  0
ATTRIB
  5
18EC
  8
0
 10
28.165963
 20
2.833263
 30
0.0
 40
0.333325
  1

 41
1.125
 72
     5
 11
29.915919
 21
2.833263
 31
0.0
  2
RDATE
 70
     8
  0
ATTRIB
  5
18ED
  8
0
 10
30.082581
 20
2.833263
 30
0.0
 40
0.333325
  1

  2
BY
 70
     8
  0
SEQEND
  5
18EE
  8
BORDER
  0
INSERT
  5
18EF
  8
BORDER
 66
     1
  2
REVISE12
 10
20.66615
 20
3.33325
 30
0.0
 41
2.6666
 42
2.6666
 43
2.6666
  0
ATTRIB
  5
18F0
  8
0
 10
20.749481
 20
3.499913
 30
0.0
 40
0.333325
  1

 41
0.9
 72
     5
 11
21.249469
 21
3.499913
 31
0.0
  2
NO
 70
     8
  0
ATTRIB
  5
18F1
  8
0
 10
21.499463
 20
3.499913
 30
0.0
 40
0.333325
  1

  2
REV
 70
     8
  0
ATTRIB
  5
18F2
  8
0
 10
28.165963
 20
3.499913
 30
0.0
 40
0.333325
  1

 41
1.125
 72
     5
 11
29.915919
 21
3.499913
 31
0.0
  2
RDATE
 70
     8
  0
ATTRIB
  5
18F3
  8
0
 10
30.082581
 20
3.499913
 30
0.0
 40
0.333325
  1

  2
BY
 70
     8
  0
SEQEND
  5
18F4
  8
BORDER
  0
INSERT
  5
18F5
  8
BORDER
 66
     1
  2
REVISE12
 10
20.66615
 20
3.9999
 30
0.0
 41
2.6666
 42
2.6666
 43
2.6666
  0
ATTRIB
  5
18F6
  8
0
 10
20.749481
 20
4.166563
 30
0.0
 40
0.333325
  1

 41
0.9
 72
     5
 11
21.249469
 21
4.166563
 31
0.0
  2
NO
 70
     8
  0
ATTRIB
  5
18F7
  8
0
 10
21.499463
 20
4.166563
 30
0.0
 40
0.333325
  1

  2
REV
 70
     8
  0
ATTRIB
  5
18F8
  8
0
 10
28.165963
 20
4.166563
 30
0.0
 40
0.333325
  1

 41
1.125
 72
     5
 11
29.915919
 21
4.166563
 31
0.0
  2
RDATE
 70
     8
  0
ATTRIB
  5
18F9
  8
0
 10
30.082581
 20
4.166563
 30
0.0
 40
0.333325
  1

  2
BY
 70
     8
  0
SEQEND
  5
18FA
  8
BORDER
  0
INSERT
  5
18FB
  8
BORDER
 66
     1
  2
REVISE12
 10
20.66615
 20
4.66655
 30
0.0
 41
2.6666
 42
2.6666
 43
2.6666
  0
ATTRIB
  5
18FC
  8
0
 10
20.749481
 20
4.833213
 30
0.0
 40
0.333325
  1

 41
0.9
 72
     5
 11
21.249469
 21
4.833213
 31
0.0
  2
NO
 70
     8
  0
ATTRIB
  5
18FD
  8
0
 10
21.499463
 20
4.833213
 30
0.0
 40
0.333325
  1

  2
REV
 70
     8
  0
ATTRIB
  5
18FE
  8
0
 10
28.165963
 20
4.833213
 30
0.0
 40
0.333325
  1

 41
1.125
 72
     5
 11
29.915919
 21
4.833213
 31
0.0
  2
RDATE
 70
     8
  0
ATTRIB
  5
18FF
  8
0
 10
30.082581
 20
4.833213
 30
0.0
 40
0.333325
  1

  2
BY
 70
     8
  0
SEQEND
  5
1900
  8
BORDER
  0
INSERT
  5
1901
  8
BORDER
 66
     1
  2
REVISE12
 10
20.66615
 20
5.3332
 30
0.0
 41
2.6666
 42
2.6666
 43
2.6666
  0
ATTRIB
  5
1902
  8
0
 10
20.749481
 20
5.499863
 30
0.0
 40
0.333325
  1

 41
0.9
 72
     5
 11
21.249469
 21
5.499863
 31
0.0
  2
NO
 70
     8
  0
ATTRIB
  5
1903
  8
0
 10
21.499463
 20
5.499863
 30
0.0
 40
0.333325
  1

  2
REV
 70
     8
  0
ATTRIB
  5
1904
  8
0
 10
28.165963
 20
5.499863
 30
0.0
 40
0.333325
  1

 41
1.125
 72
     5
 11
29.915919
 21
5.499863
 31
0.0
  2
RDATE
 70
     8
  0
ATTRIB
  5
1905
  8
0
 10
30.082581
 20
5.499863
 30
0.0
 40
0.333325
  1

  2
BY
 70
     8
  0
SEQEND
  5
1906
  8
BORDER
  0
LINE
  5
23F9
  8
NOTES
 10
34.92046
 20
27.306656
 30
0.0
 11
36.20046
 21
27.306656
 31
0.0
  0
TEXT
  5
23FA
  8
NOTES
 10
34.92046
 20
27.439558
 30
0.0
 40
0.333325
  1
NOTES:
  7
MASTER
  0
TEXT
  5
23FB
  8
NOTES
 10
34.562378
 20
26.813152
 30
0.0
 40
0.333325
  1
 MATERIAL: #16GA (.059) STEEL
  7
MASTER
  0
TEXT
  5
23FC
  8
NOTES
 10
34.607294
 20
26.338348
 30
0.0
 40
0.333325
  1
 FINISH:
  7
MASTER
  0
TEXT
  5
23FE
  8
NOTES
 10
34.267101
 20
25.845175
 30
0.0
 40
0.333325
  1
  PRODUCT CODE - 312E
  7
MASTER
  0
TEXT
  5
23FF
  8
NOTES
 10
34.252129
 20
25.370372
 30
0.0
 40
0.333325
  1
  COLOR - PEBBLE GRAY (BEIGE)
  7
MASTER
  0
TEXT
  5
2400
  8
NOTES
 10
34.282073
 20
24.895568
 30
0.0
 40
0.333325
  1
  POWDER TYPE - POLYESTER
  7
MASTER
  0
CIRCLE
  5
2448
  8
0
 10
37.208132
 20
9.709759
 30
0.0
 40
0.067182
  0
LINE
  5
2449
  8
DIMENSION
 10
36.968138
 20
9.709759
 30
0.0
 11
37.448126
 21
9.709759
 31
0.0
  0
LINE
  5
244A
  8
DIMENSION
 10
37.208132
 20
9.469765
 30
0.0
 11
37.208132
 21
9.949753
 31
0.0
  0
TEXT
  5
2471
  8
NOTES
  6
PHANTOM
 10
32.387642
 20
6.359152
 30
0.0
 40
0.333325
  1
TCI P/N 17131
 41
0.8
  7
MASTER
  0
LINE
  5
2472
  8
NOTES
  6
PHANTOM
 10
32.413107
 20
6.206479
 30
0.0
 11
35.570733
 21
6.206479
 31
0.0
  0
TEXT
  5
24A9
  8
DIMENSION
 10
36.38019
 20
13.998235
 30
0.0
 40
0.333325
  1
LOCATION FOR
 41
0.8
  7
MASTER
  0
TEXT
  5
24AA
  8
DIMENSION
 10
36.38019
 20
13.458566
 30
0.0
 40
0.333325
  1
CUSTOMERS
 41
0.8
  7
MASTER
  0
TEXT
  5
24AB
  8
DIMENSION
 10
36.38019
 20
12.918897
 30
0.0
 40
0.333325
  1
CONDUIT FITTING
 41
0.8
  7
MASTER
  0
TEXT
  5
24AC
  8
DIMENSION
 10
36.38019
 20
12.379228
 30
0.0
 40
0.333325
  1
(BOTH SIDES)
 41
0.8
  7
MASTER
  0
POLYLINE
  8
0
  5
268B
  66
     1
 10
0.000000
 20
0.000000
 30
0.000000
  70
     8
  0
VERTEX
  8
0
  5
268C
 10
37.1570
 20
9.76589
 30
0.000000
  70
    32
  0
VERTEX
  8
0
  5
268D
 10
35.6342
 20
14.1648
 30
0.000000
  70
    32
  0
VERTEX
  8
0
  5
268E
 10
36.2710
 20
14.1648
 30
0.000000
  70
    32
  0
SEQEND
  8
0
  5
268F
  0
TEXT
  5
24AE
  8
NOTES
  6
PHANTOM
 10
4.782924
 20
6.383714
 30
0.0
 40
0.333325
  1
TCI P/N 17132
 41
0.8
  7
MASTER
  0
LINE
  5
24AF
  8
NOTES
  6
PHANTOM
 10
4.808389
 20
6.249746
 30
0.0
 11
7.966014
 21
6.249746
 31
0.0
  0
TEXT
  5
24B1
  8
NOTES
 10
34.985757
 20
24.29714
 30
0.0
 40
0.333325
  1
-POLYURETHANE
  7
MASTER
  0
TEXT
  5
24B2
  8
NOTES
 10
11.321135
 20
26.813152
 30
0.0
 40
0.333325
  1
 MATERIAL: #16GA (.059) STEEL
  7
MASTER
  0
TEXT
  5
24B3
  8
NOTES
 10
11.025858
 20
25.845175
 30
0.0
 40
0.333325
  1
  PRODUCT CODE - 312E
  7
MASTER
  0
TEXT
  5
24B4
  8
NOTES
 10
11.010886
 20
25.370372
 30
0.0
 40
0.333325
  1
  COLOR - PEBBLE GRAY (BEIGE)
  7
MASTER
  0
TEXT
  5
24B5
  8
NOTES
 10
11.04083
 20
24.895568
 30
0.0
 40
0.333325
  1
  POWDER TYPE - POLYESTER
  7
MASTER
  0
TEXT
  5
24B6
  8
NOTES
 10
11.744513
 20
24.29714
 30
0.0
 40
0.333325
  1
-POLYURETHANE
  7
MASTER
  0
LINE
  5
24B7
  8
NOTES
 10
11.679216
 20
27.306656
 30
0.0
 11
12.959216
 21
27.306656
 31
0.0
  0
TEXT
  5
24B8
  8
NOTES
 10
11.679216
 20
27.439558
 30
0.0
 40
0.333325
  1
NOTES:
  7
MASTER
  0
TEXT
  5
24B9
  8
NOTES
 10
11.36605
 20
26.338348
 30
0.0
 40
0.333325
  1
 FINISH:
  7
MASTER
  0
LINE
  5
24C7
  8
0
  6
BYBLOCK
 62
     0
 10
41.554794
 20
15.54431
 30
0.0
 11
43.250786
 21
15.54431
 31
0.0
  0
LINE
  5
24C8
  8
0
  6
BYBLOCK
 62
     0
 10
41.494794
 20
9.039759
 30
0.0
 11
43.250786
 21
9.039759
 31
0.0
  0
LINE
  5
24C9
  8
0
  6
BYBLOCK
 62
     0
 10
42.770798
 20
15.064322
 30
0.0
 11
42.770798
 21
12.962221
 31
0.0
  0
LINE
  5
24CA
  8
0
  6
BYBLOCK
 62
     0
 10
42.770798
 20
9.519747
 30
0.0
 11
42.770798
 21
12.148908
 31
0.0
  0
SOLID
  5
24CB
  8
0
  6
BYBLOCK
 62
     0
 10
42.6908
 20
15.064322
 30
0.0
 11
42.850796
 21
15.064322
 31
0.0
 12
42.770798
 22
15.54431
 32
0.0
 13
42.770798
 23
15.54431
 33
0.0
  0
SOLID
  5
24CC
  8
0
  6
BYBLOCK
 62
     0
 10
42.6908
 20
9.519747
 30
0.0
 11
42.850796
 21
9.519747
 31
0.0
 12
42.770798
 22
9.039759
 32
0.0
 13
42.770798
 23
9.039759
 33
0.0
  0
POINT
  5
24CE
  8
DEFPOINTS
  6
BYBLOCK
 62
     0
 10
41.388132
 20
15.54431
 30
0.0
  0
POINT
  5
24CF
  8
DEFPOINTS
  6
BYBLOCK
 62
     0
 10
41.328132
 20
9.039759
 30
0.0
  0
POINT
  5
24D0
  8
DEFPOINTS
  6
BYBLOCK
 62
     0
 10
42.770798
 20
9.039759
 30
0.0
  0
LINE
  5
24D1
  8
0
  6
BYBLOCK
 62
     0
 10
35.461349
 20
8.943096
 30
0.0
 11
35.461349
 21
7.149444
 31
0.0
  0
LINE
  5
24D2
  8
0
  6
BYBLOCK
 62
     0
 10
41.458132
 20
9.003096
 30
0.0
 11
41.458132
 21
7.149444
 31
0.0
  0
LINE
  5
24D3
  8
0
  6
BYBLOCK
 62
     0
 10
35.941337
 20
7.629432
 30
0.0
 11
37.530215
 21
7.629432
 31
0.0
  0
LINE
  5
24D4
  8
0
  6
BYBLOCK
 62
     0
 10
40.978144
 20
7.629432
 30
0.0
 11
38.89907
 21
7.629432
 31
0.0
  0
SOLID
  5
24D5
  8
0
  6
BYBLOCK
 62
     0
 10
35.941337
 20
7.70943
 30
0.0
 11
35.941337
 21
7.549434
 31
0.0
 12
35.461349
 22
7.629432
 32
0.0
 13
35.461349
 23
7.629432
 33
0.0
  0
SOLID
  5
24D6
  8
0
  6
BYBLOCK
 62
     0
 10
40.978144
 20
7.70943
 30
0.0
 11
40.978144
 21
7.549434
 31
0.0
 12
41.458132
 22
7.629432
 32
0.0
 13
41.458132
 23
7.629432
 33
0.0
  0
POINT
  5
24D8
  8
DEFPOINTS
  6
BYBLOCK
 62
     0
 10
35.461349
 20
9.109759
 30
0.0
  0
POINT
  5
24D9
  8
DEFPOINTS
  6
BYBLOCK
 62
     0
 10
41.458132
 20
9.169759
 30
0.0
  0
POINT
  5
24DA
  8
DEFPOINTS
  6
BYBLOCK
 62
     0
 10
41.458132
 20
7.629432
 30
0.0
  0
LINE
  5
24DB
  8
0
  6
BYBLOCK
 62
     0
 10
37.208132
 20
9.543096
 30
0.0
 11
37.208132
 21
7.873683
 31
0.0
  0
LINE
  5
24DC
  8
0
  6
BYBLOCK
 62
     0
 10
41.458132
 20
9.543096
 30
0.0
 11
41.458132
 21
7.873683
 31
0.0
  0
LINE
  5
24DD
  8
0
  6
BYBLOCK
 62
     0
 10
37.68812
 20
8.353671
 30
0.0
 11
38.59315
 21
8.353671
 31
0.0
  0
LINE
  5
24DE
  8
0
  6
BYBLOCK
 62
     0
 10
40.978144
 20
8.353671
 30
0.0
 11
40.073113
 21
8.353671
 31
0.0
  0
SOLID
  5
24DF
  8
0
  6
BYBLOCK
 62
     0
 10
37.68812
 20
8.433669
 30
0.0
 11
37.68812
 21
8.273673
 31
0.0
 12
37.208132
 22
8.353671
 32
0.0
 13
37.208132
 23
8.353671
 33
0.0
  0
SOLID
  5
24E0
  8
0
  6
BYBLOCK
 62
     0
 10
40.978144
 20
8.433669
 30
0.0
 11
40.978144
 21
8.273673
 31
0.0
 12
41.458132
 22
8.353671
 32
0.0
 13
41.458132
 23
8.353671
 33
0.0
  0
POINT
  5
24E2
  8
DEFPOINTS
  6
BYBLOCK
 62
     0
 10
37.208132
 20
9.709759
 30
0.0
  0
POINT
  5
24E3
  8
DEFPOINTS
  6
BYBLOCK
 62
     0
 10
41.458132
 20
9.709759
 30
0.0
  0
POINT
  5
24E4
  8
DEFPOINTS
  6
BYBLOCK
 62
     0
 10
41.458132
 20
8.353671
 30
0.0
  0
LINE
  5
24E5
  8
0
  6
BYBLOCK
 62
     0
 10
24.409277
 20
8.943096
 30
0.0
 11
24.409277
 21
7.042489
 31
0.0
  0
LINE
  5
24E6
  8
0
  6
BYBLOCK
 62
     0
 10
32.407485
 20
8.943096
 30
0.0
 11
32.407485
 21
7.042489
 31
0.0
  0
LINE
  5
24E7
  8
0
  6
BYBLOCK
 62
     0
 10
24.889265
 20
7.522477
 30
0.0
 11
27.723954
 21
7.522477
 31
0.0
  0
LINE
  5
24E8
  8
0
  6
BYBLOCK
 62
     0
 10
31.927497
 20
7.522477
 30
0.0
 11
29.092808
 21
7.522477
 31
0.0
  0
SOLID
  5
24E9
  8
0
  6
BYBLOCK
 62
     0
 10
24.889265
 20
7.602475
 30
0.0
 11
24.889265
 21
7.442479
 31
0.0
 12
24.409277
 22
7.522477
 32
0.0
 13
24.409277
 23
7.522477
 33
0.0
  0
SOLID
  5
24EA
  8
0
  6
BYBLOCK
 62
     0
 10
31.927497
 20
7.602475
 30
0.0
 11
31.927497
 21
7.442479
 31
0.0
 12
32.407485
 22
7.522477
 32
0.0
 13
32.407485
 23
7.522477
 33
0.0
  0
POINT
  5
24EC
  8
DEFPOINTS
  6
BYBLOCK
 62
     0
 10
24.409277
 20
9.109759
 30
0.0
  0
POINT
  5
24ED
  8
DEFPOINTS
  6
BYBLOCK
 62
     0
 10
32.407485
 20
9.109759
 30
0.0
  0
POINT
  5
24EE
  8
DEFPOINTS
  6
BYBLOCK
 62
     0
 10
32.407485
 20
7.522477
 30
0.0
  0
LINE
  5
24EF
  8
0
  6
BYBLOCK
 62
     0
 10
32.472374
 20
15.54431
 30
0.0
 11
34.256915
 21
15.54431
 31
0.0
  0
LINE
  5
24F0
  8
0
  6
BYBLOCK
 62
     0
 10
32.375564
 20
14.549149
 30
0.0
 11
34.256915
 21
14.549149
 31
0.0
  0
LINE
  5
24F1
  8
0
  6
BYBLOCK
 62
     0
 10
33.776927
 20
14.069161
 30
0.0
 11
33.776927
 21
13.589173
 31
0.0
  0
LINE
  5
24F2
  8
0
  6
BYBLOCK
 62
     0
 10
33.776927
 20
16.024298
 30
0.0
 11
33.776927
 21
16.504286
 31
0.0
  0
LINE
  5
24F3
  8
0
  6
BYBLOCK
 62
     0
 10
33.776927
 20
16.504286
 30
0.0
 11
34.256915
 21
16.504286
 31
0.0
  0
SOLID
  5
24F4
  8
0
  6
BYBLOCK
 62
     0
 10
33.696929
 20
14.069161
 30
0.0
 11
33.856925
 21
14.069161
 31
0.0
 12
33.776927
 22
14.549149
 32
0.0
 13
33.776927
 23
14.549149
 33
0.0
  0
SOLID
  5
24F5
  8
0
  6
BYBLOCK
 62
     0
 10
33.696929
 20
16.024298
 30
0.0
 11
33.856925
 21
16.024298
 31
0.0
 12
33.776927
 22
15.54431
 32
0.0
 13
33.776927
 23
15.54431
 33
0.0
  0
POINT
  5
24F7
  8
DEFPOINTS
  6
BYBLOCK
 62
     0
 10
32.305711
 20
15.54431
 30
0.0
  0
POINT
  5
24F8
  8
DEFPOINTS
  6
BYBLOCK
 62
     0
 10
32.208902
 20
14.549149
 30
0.0
  0
POINT
  5
24F9
  8
DEFPOINTS
  6
BYBLOCK
 62
     0
 10
33.776927
 20
14.549149
 30
0.0
  0
LINE
  5
24FA
  8
0
  6
BYBLOCK
 62
     0
 10
35.364687
 20
9.039759
 30
0.0
 11
32.909641
 21
9.039759
 31
0.0
  0
LINE
  5
24FB
  8
0
  6
BYBLOCK
 62
     0
 10
37.041469
 20
9.709759
 30
0.0
 11
32.909641
 21
9.709759
 31
0.0
  0
LINE
  5
24FC
  8
0
  6
BYBLOCK
 62
     0
 10
33.389629
 20
8.559771
 30
0.0
 11
33.389629
 21
8.079783
 31
0.0
  0
LINE
  5
24FD
  8
0
  6
BYBLOCK
 62
     0
 10
33.389629
 20
10.189747
 30
0.0
 11
33.389629
 21
10.669735
 31
0.0
  0
LINE
  5
24FE
  8
0
  6
BYBLOCK
 62
     0
 10
33.389629
 20
10.669735
 30
0.0
 11
33.869617
 21
10.669735
 31
0.0
  0
SOLID
  5
24FF
  8
0
  6
BYBLOCK
 62
     0
 10
33.309631
 20
8.559771
 30
0.0
 11
33.469627
 21
8.559771
 31
0.0
 12
33.389629
 22
9.039759
 32
0.0
 13
33.389629
 23
9.039759
 33
0.0
  0
SOLID
  5
2500
  8
0
  6
BYBLOCK
 62
     0
 10
33.309631
 20
10.189747
 30
0.0
 11
33.469627
 21
10.189747
 31
0.0
 12
33.389629
 22
9.709759
 32
0.0
 13
33.389629
 23
9.709759
 33
0.0
  0
POINT
  5
2502
  8
DEFPOINTS
  6
BYBLOCK
 62
     0
 10
35.531349
 20
9.039759
 30
0.0
  0
POINT
  5
2503
  8
DEFPOINTS
  6
BYBLOCK
 62
     0
 10
37.208132
 20
9.709759
 30
0.0
  0
POINT
  5
2504
  8
DEFPOINTS
  6
BYBLOCK
 62
     0
 10
33.389629
 20
9.709759
 30
0.0
  0
LINE
  5
2505
  8
0
  6
BYBLOCK
 62
     0
 10
32.407338
 20
14.549149
 30
0.0
 11
34.256915
 21
14.549149
 31
0.0
  0
LINE
  5
2506
  8
0
  6
BYBLOCK
 62
     0
 10
32.407338
 20
11.048693
 30
0.0
 11
34.256915
 21
11.048693
 31
0.0
  0
LINE
  5
2507
  8
0
  6
BYBLOCK
 62
     0
 10
33.776927
 20
14.069161
 30
0.0
 11
33.776927
 21
13.185234
 31
0.0
  0
LINE
  5
2508
  8
0
  6
BYBLOCK
 62
     0
 10
33.776927
 20
11.528681
 30
0.0
 11
33.776927
 21
12.371921
 31
0.0
  0
SOLID
  5
2509
  8
0
  6
BYBLOCK
 62
     0
 10
33.696929
 20
14.069161
 30
0.0
 11
33.856925
 21
14.069161
 31
0.0
 12
33.776927
 22
14.549149
 32
0.0
 13
33.776927
 23
14.549149
 33
0.0
  0
SOLID
  5
250A
  8
0
  6
BYBLOCK
 62
     0
 10
33.696929
 20
11.528681
 30
0.0
 11
33.856925
 21
11.528681
 31
0.0
 12
33.776927
 22
11.048693
 32
0.0
 13
33.776927
 23
11.048693
 33
0.0
  0
POINT
  5
250C
  8
DEFPOINTS
  6
BYBLOCK
 62
     0
 10
32.240675
 20
14.549149
 30
0.0
  0
POINT
  5
250D
  8
DEFPOINTS
  6
BYBLOCK
 62
     0
 10
32.240675
 20
11.048693
 30
0.0
  0
POINT
  5
250E
  8
DEFPOINTS
  6
BYBLOCK
 62
     0
 10
33.776927
 20
11.048693
 30
0.0
  0
LINE
  5
250F
  8
0
  6
BYBLOCK
 62
     0
 10
24.409277
 20
19.900469
 30
0.0
 11
24.409277
 21
18.451107
 31
0.0
  0
LINE
  5
2510
  8
0
  6
BYBLOCK
 62
     0
 10
24.909277
 20
20.317219
 30
0.0
 11
24.909277
 21
18.451107
 31
0.0
  0
LINE
  5
2511
  8
0
  6
BYBLOCK
 62
     0
 10
25.389265
 20
18.931095
 30
0.0
 11
25.869253
 21
18.931095
 31
0.0
  0
LINE
  5
2512
  8
0
  6
BYBLOCK
 62
     0
 10
23.929289
 20
18.931095
 30
0.0
 11
23.449301
 21
18.931095
 31
0.0
  0
SOLID
  5
2513
  8
0
  6
BYBLOCK
 62
     0
 10
25.389265
 20
19.011093
 30
0.0
 11
25.389265
 21
18.851097
 31
0.0
 12
24.909277
 22
18.931095
 32
0.0
 13
24.909277
 23
18.931095
 33
0.0
  0
SOLID
  5
2514
  8
0
  6
BYBLOCK
 62
     0
 10
23.929289
 20
19.011093
 30
0.0
 11
23.929289
 21
18.851097
 31
0.0
 12
24.409277
 22
18.931095
 32
0.0
 13
24.409277
 23
18.931095
 33
0.0
  0
POINT
  5
2516
  8
DEFPOINTS
  6
BYBLOCK
 62
     0
 10
24.409277
 20
20.067132
 30
0.0
  0
POINT
  5
2517
  8
DEFPOINTS
  6
BYBLOCK
 62
     0
 10
24.909277
 20
20.483882
 30
0.0
  0
POINT
  5
2518
  8
DEFPOINTS
  6
BYBLOCK
 62
     0
 10
24.909277
 20
18.931095
 30
0.0
  0
LINE
  5
2519
  8
0
  6
BYBLOCK
 62
     0
 10
24.409277
 20
15.640972
 30
0.0
 11
24.409277
 21
17.637643
 31
0.0
  0
LINE
  5
251A
  8
0
  6
BYBLOCK
 62
     0
 10
24.909336
 20
15.049062
 30
0.0
 11
24.909336
 21
17.637643
 31
0.0
  0
LINE
  5
251B
  8
0
  6
BYBLOCK
 62
     0
 10
25.389324
 20
17.157655
 30
0.0
 11
25.869312
 21
17.157655
 31
0.0
  0
LINE
  5
251C
  8
0
  6
BYBLOCK
 62
     0
 10
23.929289
 20
17.157655
 30
0.0
 11
23.449301
 21
17.157655
 31
0.0
  0
SOLID
  5
251D
  8
0
  6
BYBLOCK
 62
     0
 10
25.389324
 20
17.237653
 30
0.0
 11
25.389324
 21
17.077657
 31
0.0
 12
24.909336
 22
17.157655
 32
0.0
 13
24.909336
 23
17.157655
 33
0.0
  0
SOLID
  5
251E
  8
0
  6
BYBLOCK
 62
     0
 10
23.929289
 20
17.237653
 30
0.0
 11
23.929289
 21
17.077657
 31
0.0
 12
24.409277
 22
17.157655
 32
0.0
 13
24.409277
 23
17.157655
 33
0.0
  0
POINT
  5
2520
  8
DEFPOINTS
  6
BYBLOCK
 62
     0
 10
24.409277
 20
15.47431
 30
0.0
  0
POINT
  5
2521
  8
DEFPOINTS
  6
BYBLOCK
 62
     0
 10
24.909336
 20
14.882399
 30
0.0
  0
POINT
  5
2522
  8
DEFPOINTS
  6
BYBLOCK
 62
     0
 10
24.909336
 20
17.157655
 30
0.0
  0
TEXT
  5
2523
  8
DIMENSION
 10
33.68633
 20
17.406525
 30
0.0
 40
0.333325
  1
KEYSLOT FOR #10 SCREW
 41
0.8
  7
MASTER
  0
TEXT
  5
2524
  8
DIMENSION
 10
36.733873
 20
16.787493
 30
0.0
 40
0.333325
  1
(2 PLACES)
 41
0.8
  7
MASTER
  0
LINE
  5
2525
  8
0
  6
BYBLOCK
 62
     0
 10
24.409277
 20
19.900469
 30
0.0
 11
24.409277
 21
17.609665
 31
0.0
  0
LINE
  5
2526
  8
0
  6
BYBLOCK
 62
     0
 10
32.407485
 20
19.900469
 30
0.0
 11
32.407485
 21
17.609665
 31
0.0
  0
LINE
  5
2527
  8
0
  6
BYBLOCK
 62
     0
 10
24.889265
 20
18.089653
 30
0.0
 11
27.90827
 21
18.089653
 31
0.0
  0
LINE
  5
2528
  8
0
  6
BYBLOCK
 62
     0
 10
31.927497
 20
18.089653
 30
0.0
 11
29.277125
 21
18.089653
 31
0.0
  0
SOLID
  5
2529
  8
0
  6
BYBLOCK
 62
     0
 10
24.889265
 20
18.169651
 30
0.0
 11
24.889265
 21
18.009655
 31
0.0
 12
24.409277
 22
18.089653
 32
0.0
 13
24.409277
 23
18.089653
 33
0.0
  0
SOLID
  5
252A
  8
0
  6
BYBLOCK
 62
     0
 10
31.927497
 20
18.169651
 30
0.0
 11
31.927497
 21
18.009655
 31
0.0
 12
32.407485
 22
18.089653
 32
0.0
 13
32.407485
 23
18.089653
 33
0.0
  0
POINT
  5
252C
  8
DEFPOINTS
  6
BYBLOCK
 62
     0
 10
24.409277
 20
20.067132
 30
0.0
  0
POINT
  5
252D
  8
DEFPOINTS
  6
BYBLOCK
 62
     0
 10
32.407485
 20
20.067132
 30
0.0
  0
POINT
  5
252E
  8
DEFPOINTS
  6
BYBLOCK
 62
     0
 10
32.407485
 20
18.089653
 30
0.0
  0
LINE
  5
252F
  8
0
  6
BYBLOCK
 62
     0
 10
24.909277
 20
20.317219
 30
0.0
 11
24.909277
 21
18.451107
 31
0.0
  0
LINE
  5
2530
  8
0
  6
BYBLOCK
 62
     0
 10
31.907485
 20
20.317219
 30
0.0
 11
31.907485
 21
18.451107
 31
0.0
  0
LINE
  5
2531
  8
0
  6
BYBLOCK
 62
     0
 10
25.389265
 20
18.931095
 30
0.0
 11
27.955934
 21
18.931095
 31
0.0
  0
LINE
  5
2532
  8
0
  6
BYBLOCK
 62
     0
 10
31.427497
 20
18.931095
 30
0.0
 11
29.324789
 21
18.931095
 31
0.0
  0
SOLID
  5
2533
  8
0
  6
BYBLOCK
 62
     0
 10
25.389265
 20
19.011093
 30
0.0
 11
25.389265
 21
18.851097
 31
0.0
 12
24.909277
 22
18.931095
 32
0.0
 13
24.909277
 23
18.931095
 33
0.0
  0
SOLID
  5
2534
  8
0
  6
BYBLOCK
 62
     0
 10
31.427497
 20
19.011093
 30
0.0
 11
31.427497
 21
18.851097
 31
0.0
 12
31.907485
 22
18.931095
 32
0.0
 13
31.907485
 23
18.931095
 33
0.0
  0
POINT
  5
2536
  8
DEFPOINTS
  6
BYBLOCK
 62
     0
 10
24.909277
 20
20.483882
 30
0.0
  0
POINT
  5
2537
  8
DEFPOINTS
  6
BYBLOCK
 62
     0
 10
31.907485
 20
20.483882
 30
0.0
  0
POINT
  5
2538
  8
DEFPOINTS
  6
BYBLOCK
 62
     0
 10
31.907485
 20
18.931095
 30
0.0
  0
LINE
  5
2539
  8
0
  6
BYBLOCK
 62
     0
 10
24.909336
 20
15.049062
 30
0.0
 11
24.909336
 21
17.637643
 31
0.0
  0
LINE
  5
253A
  8
0
  6
BYBLOCK
 62
     0
 10
31.907425
 20
15.049062
 30
0.0
 11
31.907425
 21
17.637643
 31
0.0
  0
LINE
  5
253B
  8
0
  6
BYBLOCK
 62
     0
 10
25.389324
 20
17.157655
 30
0.0
 11
28.111513
 21
17.157655
 31
0.0
  0
LINE
  5
253C
  8
0
  6
BYBLOCK
 62
     0
 10
31.427437
 20
17.157655
 30
0.0
 11
29.480368
 21
17.157655
 31
0.0
  0
SOLID
  5
253D
  8
0
  6
BYBLOCK
 62
     0
 10
25.389324
 20
17.237653
 30
0.0
 11
25.389324
 21
17.077657
 31
0.0
 12
24.909336
 22
17.157655
 32
0.0
 13
24.909336
 23
17.157655
 33
0.0
  0
SOLID
  5
253E
  8
0
  6
BYBLOCK
 62
     0
 10
31.427437
 20
17.237653
 30
0.0
 11
31.427437
 21
17.077657
 31
0.0
 12
31.907425
 22
17.157655
 32
0.0
 13
31.907425
 23
17.157655
 33
0.0
  0
POINT
  5
2540
  8
DEFPOINTS
  6
BYBLOCK
 62
     0
 10
24.909336
 20
14.882399
 30
0.0
  0
POINT
  5
2541
  8
DEFPOINTS
  6
BYBLOCK
 62
     0
 10
31.907425
 20
14.882399
 30
0.0
  0
POINT
  5
2542
  8
DEFPOINTS
  6
BYBLOCK
 62
     0
 10
31.907425
 20
17.157655
 30
0.0
  0
LINE
  5
2543
  8
0
  6
BYBLOCK
 62
     0
 10
32.56871
 20
20.067132
 30
0.0
 11
34.887176
 21
20.067132
 31
0.0
  0
LINE
  5
2544
  8
0
  6
BYBLOCK
 62
     0
 10
32.40196
 20
20.817132
 30
0.0
 11
34.887176
 21
20.817132
 31
0.0
  0
LINE
  5
2545
  8
0
  6
BYBLOCK
 62
     0
 10
34.407188
 20
21.29712
 30
0.0
 11
34.407188
 21
21.777108
 31
0.0
  0
LINE
  5
2546
  8
0
  6
BYBLOCK
 62
     0
 10
34.407188
 20
19.587144
 30
0.0
 11
34.407188
 21
19.107156
 31
0.0
  0
LINE
  5
2547
  8
0
  6
BYBLOCK
 62
     0
 10
34.407188
 20
19.107156
 30
0.0
 11
33.9272
 21
19.107156
 31
0.0
  0
SOLID
  5
2548
  8
0
  6
BYBLOCK
 62
     0
 10
34.32719
 20
21.29712
 30
0.0
 11
34.487186
 21
21.29712
 31
0.0
 12
34.407188
 22
20.817132
 32
0.0
 13
34.407188
 23
20.817132
 33
0.0
  0
SOLID
  5
2549
  8
0
  6
BYBLOCK
 62
     0
 10
34.32719
 20
19.587144
 30
0.0
 11
34.487186
 21
19.587144
 31
0.0
 12
34.407188
 22
20.067132
 32
0.0
 13
34.407188
 23
20.067132
 33
0.0
  0
POINT
  5
254B
  8
DEFPOINTS
  6
BYBLOCK
 62
     0
 10
32.402048
 20
20.067132
 30
0.0
  0
POINT
  5
254C
  8
DEFPOINTS
  6
BYBLOCK
 62
     0
 10
32.235298
 20
20.817132
 30
0.0
  0
POINT
  5
254D
  8
DEFPOINTS
  6
BYBLOCK
 62
     0
 10
34.407188
 20
20.817132
 30
0.0
  0
SOLID
  5
254E
  8
DIMENSION
 10
32.244785
 20
15.092864
 30
0.0
 11
31.995311
 21
14.675072
 31
0.0
 12
32.0958
 22
15.151192
 32
0.0
 13
32.0958
 23
15.151192
 33
0.0
1001
ACAD
1000
DSTYLE
1002
{
1070
   271
1070
     2
1002
}
  0
POLYLINE
  5
254F
  8
DIMENSION
 66
     1
 10
0.0
 20
0.0
 30
0.0
1001
ACAD
1000
DSTYLE
1002
{
1070
   271
1070
     2
1002
}
  0
VERTEX
  5
2682
  8
DIMENSION
 10
32.170292
 20
15.122028
 30
0.0
  0
VERTEX
  5
2683
  8
DIMENSION
 10
33.122433
 20
17.554088
 30
0.0
  0
VERTEX
  5
2684
  8
DIMENSION
 10
33.573281
 20
17.554088
 30
0.0
  0
SEQEND
  5
2685
  8
DIMENSION
  0
SOLID
  5
2550
  8
NOTES
  6
CONTINUOUS
 10
39.449992
 20
15.75366
 30
0.0
 11
39.024219
 21
15.518063
 31
0.0
 12
39.350567
 22
15.879014
 32
0.0
 13
39.350567
 23
15.879014
 33
0.0
1001
ACAD
1000
DSTYLE
1002
{
1070
   271
1070
     2
1002
}
  0
POLYLINE
  5
2551
  8
NOTES
  6
CONTINUOUS
 66
     1
 10
0.0
 20
0.0
 30
0.0
1001
ACAD
1000
DSTYLE
1002
{
1070
   271
1070
     2
1002
}
  0
VERTEX
  5
2686
  8
NOTES
  6
CONTINUOUS
 10
39.40028
 20
15.816337
 30
0.0
  0
VERTEX
  5
2687
  8
NOTES
  6
CONTINUOUS
 10
42.487119
 20
18.264673
 30
0.0
  0
VERTEX
  5
2688
  8
NOTES
  6
CONTINUOUS
 10
41.528162
 20
18.264673
 30
0.0
  0
SEQEND
  5
2689
  8
NOTES
  6
CONTINUOUS
  0
LINE
  5
2552
  8
0
  6
BYBLOCK
 62
     0
 10
32.407398
 20
20.817132
 30
0.0
 11
34.887176
 21
20.817132
 31
0.0
  0
LINE
  5
2553
  8
0
  6
BYBLOCK
 62
     0
 10
32.407398
 20
25.321683
 30
0.0
 11
34.887176
 21
25.321683
 31
0.0
  0
LINE
  5
2554
  8
0
  6
BYBLOCK
 62
     0
 10
34.407188
 20
21.29712
 30
0.0
 11
34.407188
 21
22.698882
 31
0.0
  0
LINE
  5
2555
  8
0
  6
BYBLOCK
 62
     0
 10
34.407188
 20
24.841695
 30
0.0
 11
34.407188
 21
23.512195
 31
0.0
  0
SOLID
  5
2556
  8
0
  6
BYBLOCK
 62
     0
 10
34.32719
 20
21.29712
 30
0.0
 11
34.487186
 21
21.29712
 31
0.0
 12
34.407188
 22
20.817132
 32
0.0
 13
34.407188
 23
20.817132
 33
0.0
  0
SOLID
  5
2557
  8
0
  6
BYBLOCK
 62
     0
 10
34.32719
 20
24.841695
 30
0.0
 11
34.487186
 21
24.841695
 31
0.0
 12
34.407188
 22
25.321683
 32
0.0
 13
34.407188
 23
25.321683
 33
0.0
  0
POINT
  5
2559
  8
DEFPOINTS
  6
BYBLOCK
 62
     0
 10
32.240735
 20
20.817132
 30
0.0
  0
POINT
  5
255A
  8
DEFPOINTS
  6
BYBLOCK
 62
     0
 10
32.240735
 20
25.321683
 30
0.0
  0
POINT
  5
255B
  8
DEFPOINTS
  6
BYBLOCK
 62
     0
 10
34.407188
 20
25.321683
 30
0.0
  0
LINE
  5
255C
  8
0
  6
BYBLOCK
 62
     0
 10
15.935319
 20
8.873096
 30
0.0
 11
15.935319
 21
7.069441
 31
0.0
  0
LINE
  5
255D
  8
0
  6
BYBLOCK
 62
     0
 10
14.685319
 20
8.873096
 30
0.0
 11
14.685319
 21
7.069441
 31
0.0
  0
LINE
  5
255E
  8
0
  6
BYBLOCK
 62
     0
 10
16.415307
 20
7.549429
 30
0.0
 11
16.895295
 21
7.549429
 31
0.0
  0
LINE
  5
255F
  8
0
  6
BYBLOCK
 62
     0
 10
14.205331
 20
7.549429
 30
0.0
 11
13.54913
 21
7.549429
 31
0.0
  0
SOLID
  5
2560
  8
0
  6
BYBLOCK
 62
     0
 10
16.415307
 20
7.629427
 30
0.0
 11
16.415307
 21
7.469431
 31
0.0
 12
15.935319
 22
7.549429
 32
0.0
 13
15.935319
 23
7.549429
 33
0.0
  0
SOLID
  5
2561
  8
0
  6
BYBLOCK
 62
     0
 10
14.205331
 20
7.629427
 30
0.0
 11
14.205331
 21
7.469431
 31
0.0
 12
14.685319
 22
7.549429
 32
0.0
 13
14.685319
 23
7.549429
 33
0.0
  0
POINT
  5
2563
  8
DEFPOINTS
  6
BYBLOCK
 62
     0
 10
15.935319
 20
9.039759
 30
0.0
  0
POINT
  5
2564
  8
DEFPOINTS
  6
BYBLOCK
 62
     0
 10
14.685319
 20
9.039759
 30
0.0
  0
POINT
  5
2565
  8
DEFPOINTS
  6
BYBLOCK
 62
     0
 10
14.685319
 20
7.549429
 30
0.0
  0
LINE
  5
2566
  8
0
  6
BYBLOCK
 62
     0
 10
13.325809
 20
9.039759
 30
0.0
 11
10.837115
 21
9.039759
 31
0.0
  0
LINE
  5
2567
  8
0
  6
BYBLOCK
 62
     0
 10
15.143657
 20
9.713431
 30
0.0
 11
10.837115
 21
9.713431
 31
0.0
  0
LINE
  5
2568
  8
0
  6
BYBLOCK
 62
     0
 10
11.317103
 20
8.559771
 30
0.0
 11
11.317103
 21
8.079783
 31
0.0
  0
LINE
  5
2569
  8
0
  6
BYBLOCK
 62
     0
 10
11.317103
 20
10.193419
 30
0.0
 11
11.317103
 21
10.673407
 31
0.0
  0
LINE
  5
256A
  8
0
  6
BYBLOCK
 62
     0
 10
11.317103
 20
10.673407
 30
0.0
 11
11.797091
 21
10.673407
 31
0.0
  0
SOLID
  5
256B
  8
0
  6
BYBLOCK
 62
     0
 10
11.237105
 20
8.559771
 30
0.0
 11
11.397101
 21
8.559771
 31
0.0
 12
11.317103
 22
9.039759
 32
0.0
 13
11.317103
 23
9.039759
 33
0.0
  0
SOLID
  5
256C
  8
0
  6
BYBLOCK
 62
     0
 10
11.237105
 20
10.193419
 30
0.0
 11
11.397101
 21
10.193419
 31
0.0
 12
11.317103
 22
9.713431
 32
0.0
 13
11.317103
 23
9.713431
 33
0.0
  0
POINT
  5
256E
  8
DEFPOINTS
  6
BYBLOCK
 62
     0
 10
13.492471
 20
9.039759
 30
0.0
  0
POINT
  5
256F
  8
DEFPOINTS
  6
BYBLOCK
 62
     0
 10
15.310319
 20
9.713431
 30
0.0
  0
POINT
  5
2570
  8
DEFPOINTS
  6
BYBLOCK
 62
     0
 10
11.317103
 20
9.713431
 30
0.0
  0
LINE
  5
2571
  8
0
  6
BYBLOCK
 62
     0
 10
15.310319
 20
9.546768
 30
0.0
 11
15.310319
 21
7.821263
 31
0.0
  0
LINE
  5
2572
  8
0
  6
BYBLOCK
 62
     0
 10
14.685319
 20
8.873096
 30
0.0
 11
14.685319
 21
7.821263
 31
0.0
  0
LINE
  5
2573
  8
0
  6
BYBLOCK
 62
     0
 10
14.205331
 20
8.301251
 30
0.0
 11
13.725343
 21
8.301251
 31
0.0
  0
LINE
  5
2574
  8
0
  6
BYBLOCK
 62
     0
 10
15.790307
 20
8.301251
 30
0.0
 11
16.317616
 21
8.301251
 31
0.0
  0
SOLID
  5
2575
  8
0
  6
BYBLOCK
 62
     0
 10
14.205331
 20
8.381249
 30
0.0
 11
14.205331
 21
8.221253
 31
0.0
 12
14.685319
 22
8.301251
 32
0.0
 13
14.685319
 23
8.301251
 33
0.0
  0
SOLID
  5
2576
  8
0
  6
BYBLOCK
 62
     0
 10
15.790307
 20
8.381249
 30
0.0
 11
15.790307
 21
8.221253
 31
0.0
 12
15.310319
 22
8.301251
 32
0.0
 13
15.310319
 23
8.301251
 33
0.0
  0
POINT
  5
2578
  8
DEFPOINTS
  6
BYBLOCK
 62
     0
 10
15.310319
 20
9.713431
 30
0.0
  0
POINT
  5
2579
  8
DEFPOINTS
  6
BYBLOCK
 62
     0
 10
14.685319
 20
9.039759
 30
0.0
  0
POINT
  5
257A
  8
DEFPOINTS
  6
BYBLOCK
 62
     0
 10
14.685319
 20
8.301251
 30
0.0
  0
LINE
  5
257B
  8
0
  6
BYBLOCK
 62
     0
 10
15.310319
 20
9.546768
 30
0.0
 11
15.310319
 21
6.11022
 31
0.0
  0
LINE
  5
257C
  8
0
  6
BYBLOCK
 62
     0
 10
19.562645
 20
9.546768
 30
0.0
 11
19.562645
 21
6.11022
 31
0.0
  0
LINE
  5
257D
  8
0
  6
BYBLOCK
 62
     0
 10
15.790307
 20
6.590208
 30
0.0
 11
16.831865
 21
6.590208
 31
0.0
  0
LINE
  5
257E
  8
0
  6
BYBLOCK
 62
     0
 10
19.082657
 20
6.590208
 30
0.0
 11
18.311828
 21
6.590208
 31
0.0
  0
SOLID
  5
257F
  8
0
  6
BYBLOCK
 62
     0
 10
15.790307
 20
6.670206
 30
0.0
 11
15.790307
 21
6.51021
 31
0.0
 12
15.310319
 22
6.590208
 32
0.0
 13
15.310319
 23
6.590208
 33
0.0
  0
SOLID
  5
2580
  8
0
  6
BYBLOCK
 62
     0
 10
19.082657
 20
6.670206
 30
0.0
 11
19.082657
 21
6.51021
 31
0.0
 12
19.562645
 22
6.590208
 32
0.0
 13
19.562645
 23
6.590208
 33
0.0
  0
POINT
  5
2582
  8
DEFPOINTS
  6
BYBLOCK
 62
     0
 10
15.310319
 20
9.713431
 30
0.0
  0
POINT
  5
2583
  8
DEFPOINTS
  6
BYBLOCK
 62
     0
 10
19.562645
 20
9.713431
 30
0.0
  0
POINT
  5
2584
  8
DEFPOINTS
  6
BYBLOCK
 62
     0
 10
19.562645
 20
6.590208
 30
0.0
  0
TEXT
  5
2585
  8
DIMENSION
 10
20.735545
 20
12.457526
 30
0.0
 40
0.333325
  1
.203 DIA HOLE
 41
0.8
  7
MASTER
  0
TEXT
  5
2586
  8
DIMENSION
 10
21.446638
 20
11.838494
 30
0.0
 40
0.333325
  1
(2 PLACES)
 41
0.8
  7
MASTER
  0
TEXT
  5
2587
  8
DIMENSION
 10
21.345054
 20
11.219462
 30
0.0
 40
0.333325
  1
MARKED "A"
 41
0.8
  7
MASTER
  0
SOLID
  5
2588
  8
DIMENSION
 10
24.761297
 20
11.305575
 30
0.0
 11
24.878186
 21
11.092251
 31
0.0
 12
24.698429
 22
11.256134
 32
0.0
 13
24.698429
 23
11.256134
 33
0.0
1001
ACAD
1000
DSTYLE
1002
{
1070
   288
1070
     1
1070
   140
1040
0.2
1070
    40
1040
1.333
1070
    42
1040
0.06
1070
    44
1040
0.1
1070
   271
1070
     2
1070
   178
1070
   256
1070
   177
1070
   256
1070
   176
1070
   256
1070
   141
1040
0.25
1002
}
  0
TEXT
  5
258A
  8
DIMENSION
 10
29.232131
 20
27.390429
 30
0.0
 40
0.333325
  1
.187 DIA HOLE
 41
0.8
  7
MASTER
  0
TEXT
  5
258B
  8
DIMENSION
 10
29.232131
 20
26.771396
 30
0.0
 40
0.333325
  1
(4 PLACES)
 41
0.8
  7
MASTER
  0
SOLID
  5
258C
  8
DIMENSION
 10
32.238021
 20
25.787475
 30
0.0
 11
31.968872
 21
25.382077
 31
0.0
 12
32.091992
 22
25.852853
 32
0.0
 13
32.091992
 23
25.852853
 33
0.0
1001
ACAD
1000
DSTYLE
1002
{
1070
   271
1070
     2
1002
}
  0
TEXT
  5
258E
  8
DIMENSION
 62
     0
 10
42.298588
 20
12.388902
 30
0.0
 40
0.333325
  1
6.50
  0
TEXT
  5
258F
  8
DIMENSION
 62
     0
 10
37.770209
 20
7.462769
 30
0.0
 40
0.333325
  1
6.00
  0
TEXT
  5
2590
  8
DIMENSION
 62
     0
 10
38.833144
 20
8.187008
 30
0.0
 40
0.333325
  1
4.25
  0
TEXT
  5
2591
  8
DIMENSION
 62
     0
 10
27.963948
 20
7.355815
 30
0.0
 40
0.333325
  1
8.00
  0
TEXT
  5
2592
  8
DIMENSION
 62
     0
 10
34.109611
 20
10.503072
 30
0.0
 40
0.333325
  1
0.67
  0
TEXT
  5
2593
  8
DIMENSION
 62
     0
 10
33.304717
 20
12.611915
 30
0.0
 40
0.333325
  1
3.50
  0
TEXT
  5
2594
  8
DIMENSION
 62
     0
 10
34.496909
 20
16.337623
 30
0.0
 40
0.333325
  1
1.00
  0
TEXT
  5
2595
  8
DIMENSION
 62
     0
 10
28.148264
 20
17.922991
 30
0.0
 40
0.333325
  1
8.00
  0
TEXT
  5
2596
  8
DIMENSION
 62
     0
 10
28.351507
 20
16.990993
 30
0.0
 40
0.333325
  1
7.00
  0
TEXT
  5
2597
  8
DIMENSION
 62
     0
 10
28.195928
 20
18.764432
 30
0.0
 40
0.333325
  1
7.00
  0
TEXT
  5
2598
  8
DIMENSION
 62
     0
 10
22.32044
 20
16.990993
 30
0.0
 40
0.333325
  1
0.50
  0
TEXT
  5
2599
  8
DIMENSION
 62
     0
 10
22.32044
 20
18.764432
 30
0.0
 40
0.333325
  1
0.50
  0
TEXT
  5
259A
  8
DIMENSION
 62
     0
 10
32.742785
 20
18.940493
 30
0.0
 40
0.333325
  1
0.75
  0
TEXT
  5
259B
  8
DIMENSION
 62
     0
 10
33.962754
 20
22.938876
 30
0.0
 40
0.333325
  1
4.51
  0
LINE
  5
259C
  8
DIMENSION
 10
32.165006
 20
25.820164
 30
0.0
 11
32.931827
 21
27.532941
 31
0.0
1001
ACAD
1000
DSTYLE
1002
{
1070
   271
1070
     2
1002
}
  0
LINE
  5
259D
  8
DIMENSION
 10
32.931827
 20
27.532941
 30
0.0
 11
32.280416
 21
27.532941
 31
0.0
1001
ACAD
1000
DSTYLE
1002
{
1070
   271
1070
     2
1002
}
  0
LINE
  5
259E
  8
DIMENSION
 10
24.729863
 20
11.280854
 30
0.0
 11
24.093195
 21
12.090423
 31
0.0
1001
ACAD
1000
DSTYLE
1002
{
1070
   288
1070
     1
1070
   140
1040
0.2
1070
    40
1040
1.333
1070
    42
1040
0.06
1070
    44
1040
0.1
1070
   271
1070
     2
1070
   178
1070
   256
1070
   177
1070
   256
1070
   176
1070
   256
1070
   141
1040
0.25
1002
}
  0
LINE
  5
259F
  8
DIMENSION
 10
24.093195
 20
12.090423
 30
0.0
 11
23.864964
 21
12.090423
 31
0.0
1001
ACAD
1000
DSTYLE
1002
{
1070
   288
1070
     1
1070
   140
1040
0.2
1070
    40
1040
1.333
1070
    42
1040
0.06
1070
    44
1040
0.1
1070
   271
1070
     2
1070
   178
1070
   256
1070
   177
1070
   256
1070
   176
1070
   256
1070
   141
1040
0.25
1002
}
  0
TEXT
  5
25A0
  8
DIMENSION
 62
     0
 10
12.42027
 20
7.382767
 30
0.0
 40
0.333325
  1
1.25
  0
TEXT
  5
25A1
  8
DIMENSION
 62
     0
 10
17.071859
 20
6.423546
 30
0.0
 40
0.333325
  1
4.25
  0
TEXT
  5
25A2
  8
DIMENSION
 62
     0
 10
16.55761
 20
8.134588
 30
0.0
 40
0.333325
  1
0.63
  0
TEXT
  5
25A3
  8
DIMENSION
 62
     0
 10
12.037085
 20
10.506744
 30
0.0
 40
0.333325
  1
0.67
  0
ENDSEC
  0
EOF
